Sum 41 Tabs

Still Waiting

11 versions

TAB

            Sum 41
Still Waiting live on Letterman, 2002

All guitars tuned 1/2 step down from standard tuning with LOTS of distortion
I totally love this song live, its so much more meaningful i think. This tab (if it gets 
is totally awesome for a band to use, one for the singer (if he/she plays guitar) for 
lead guitarist.

Guitar 1-Deryck
Guitar 2-Dave

Intro: Guitar 1 only
|--------------------------------------------------------------------|
|--------------------------------------------------------------------|
|-4-4-4-4-4-4-4-4--5-5-5-5-5-5-5-5-------------------4-4-4-4-4-4-4-4-|
|-2-2-2-2-2-2-2-2--5-5-5-5-5-5-5-5--5-5-5-5-5-5-5-5--4-4-4-4-4-4-4-4-|
|-0-0-0-0-0-0-0-0--3-3-3-3-3-3-3-3--5-5-5-5-5-5-5-5--2-2-2-2-2-2-2-2-|
|-----------------------------------3-3-3-3-3-3-3-3------------------|
PM* * * * * * * *  * * * * * * * *  * * * * * * * *  * * * * * * * *

|--------------------------------------------------------------------|
|--------------------------------------------------------------------|
|-4-4-4-4-4-4-4-4--5-5-5-5-5-5-5-5-------------------7-7-7-7-7-7-7-7~|
|-2-2-2-2-2-2-2-2--5-5-5-5-5-5-5-5--5-5-5-5-5-5-5-5--7-7-7-7-7-7-7-7~|
|-0-0-0-0-0-0-0-0--3-3-3-3-3-3-3-3--5-5-5-5-5-5-5-5--5-5-5-5-5-5-5-5~|
|-----------------------------------3-3-3-3-3-3-3-3------------------|
PM* * * * * * * *  * * * * * * * *  * * * * * * * *  * * * * *

Interlude:
Guitar 1:
|---------------------------------------------------|
|---------------------------------------------------|
|--9--9--9--9--5--5--5--5---9--9--9--9--5--5--5--5--|
|--9--9--9--9--5--5--5--5---9--9--9--9--5--5--5--5--|
|--7--7--7--7--3--3--3--3---7--7--7--7--3--3--3--3--|
|--0--0--0--0---------------0--0--0--0--------------|
|Guitar 2
|------------|------------|-------------------------|
|------------|------------|-------------------------|
|--12--11-12-|-12--11--12-|-12--11-12-14--12--11--7-|
|---X--X---X-|--X--X----X-|--X--X---X--X---X--X---X-|
|--10--9--10-|-10---9--10-|-10--9--10-12--10--9---5-|
|------------|------------|-------------------------|

|---------------------------------------------------|
|---------------------------------------------------|
|--9--9--9--9--5--5--5--5---9--9--9--9--5--5--5-5/9-|
|--9--9--9--9--5--5--5--5---9--9--9--9--5--5--5-5/9-|
|--7--7--7--7--3--3--3--3---7--7--7--7--3--3--3-3/7-|
|--0--0--0--0---------------0--0--0--0--------------|
|
|------------|------------|-------------------------|
|------------|------------|-------------------------|
|--12--11-12-|-12--11--12-|-12--11-12-14--12--11-7-9|
|---X--X---X-|--X--X----X-|--X--X---X--X---X--X--X-X|
|--10--9--10-|-10---9--10-|-10--9--10-12--10--9--5-7|
|------------|------------|-------------------------|

Verse: Guitar 2 only
|-------------------------|----------------------------|
|-------------------------|----------------------------|
|-------------------------|----------------------------|
|-2-----------7/8-7/8-5/7-|------------h5---h5---h5---2|
|-2-----------7/8-7/8-5/7-|------------h5---h5---h5---2|
|-0000000000--5/6-5/6-3/5-|-0000000000-h3-0-h3-0-h3-0-0|
PM *********               **********    *    *

|-------------------------|----------------------------|
|-------------------------|----------------------------|
|-------------------------|--------------------4-4-4-4-|
|-------------7/8-7/8-5/7-|------------5-5-5-5-4-4-4-4-|
|-------------7/8-7/8-5/7-|------------5-5-5-5-2-2-2-2-|
|-0000000000--5/6-5/6-3/5-|-0000000000-3-3-3-3---------| x2
PM**********               **********  * * * *

Guitar 1:last repeat
|------------------|
|------------------|
|--4-4-4-4---------|
|--4-4-4-4\pick\---|
|--2-2-2-2\slide\--|
|------------------|

Chorus:
Guitars 1 & 2
|--------------------------------------|
|--------------------------------------|
|--4-4-4-4--5-5-5-5-----------4-4-4-4--|
|--2-2-2-2--5-5-5-5--5-5-5-5--4-4-4-4--|
|--0-0-0-0--3-3-3-3--5-5-5-5--2-2-2-2--|
|--------------------3-3-3-3-----------|

Guitars 1
|----------------------------------------------|
|----------------------------------------------|
|--4--4--4--4--5-5-5-5--------------4--4--4--4-|
|--2--2--2--2--5-5-5-5--5--5--5--5--4--4--4--4-|
|--0--0--0--0--3-3-3-3--5--5--5--5--2--2--2--2-|
|-----------------------3--3--3--3-------------|
|Guitar 2
|----------------------------------------------|
|----------------------------------------------|
|--12-12-12-12-9-9-9-9--12-12-12-12-14-14-14-14|
|---x--x--x--x-x-x-x-x--x---x-x--x---x-x--x--x-|
|--10-10-10-10-7-7-7-7--10-10-10-10-12-12-12-12|
|----------------------------------------------|

Interlude
|---------------------------------------------------|
|---------------------------------------------------|
|--9--9--9--9--5--5--5--5---9--9--9--9--5--5--5-5/9-|
|--9--9--9--9--5--5--5--5---9--9--9--9--5--5--5-5/9-|
|--7--7--7--7--3--3--3--3---7--7--7--7--3--3--3-3/7-|
|--0--0--0--0---------------0--0--0--0--------------|
|
|------------|------------|-------------------------|
|------------|------------|-------------------------|
|--12--11-12-|-12--11--12-|-12--11-12-14--12--11-7-9|
|---X--X---X-|--X--X----X-|--X--X---X--X---X--X--X-X|
|--10--9--10-|-10---9--10-|-10--9--10-12--10--9--5-7|
|------------|------------|-------------------------|

Verse: Guitar 2 only
|-------------------------|----------------------------|
|-------------------------|----------------------------|
|-------------------------|----------------------------|
|-2-----------7/8-7/8-5/7-|------------h5---h5---h5---2|
|-2-----------7/8-7/8-5/7-|------------h5---h5---h5---2|
|-0000000000--5/6-5/6-3/5-|-0000000000-h3-0-h3-0-h3-0-0|
PM *********               **********    *    *

|-------------------------|----------------------------|
|-------------------------|----------------------------|
|-------------------------|--------------------4-4-4-4-|
|-------------7/8-7/8-5/7-|------------5-5-5-5-4-4-4-4-|
|-------------7/8-7/8-5/7-|------------5-5-5-5-2-2-2-2-|
|-0000000000--5/6-5/6-3/5-|-0000000000-3-3-3-3---------| x2
PM**********               **********  * * * *

Chorus:
Guitars 1 & 2
|--------------------------------------|
|--------------------------------------|
|--4-4-4-4--5-5-5-5-----------4-4-4-4--|
|--2-2-2-2--5-5-5-5--5-5-5-5--4-4-4-4--|
|--0-0-0-0--3-3-3-3--5-5-5-5--2-2-2-2--|
|--------------------3-3-3-3-----------|

Guitars 1
|----------------------------------------------|
|----------------------------------------------|
|--4--4--4--4--5-5-5-5--------------4--4--4--4-|
|--2--2--2--2--5-5-5-5--5--5--5--5--4--4--4--4-|
|--0--0--0--0--3-3-3-3--5--5--5--5--2--2--2--2-|
|-----------------------3--3--3--3-------------|
|Guitar 2
|----------------------------------------------|
|----------------------------------------------|
|--12-12-12-12-9-9-9-9--12-12-12-12-14-14-14-14|
|---x--x--x--x-x-x-x-x--x---x-x--x---x-x--x--x-|
|--10-10-10-10-7-7-7-7--10-10-10-10-12-12-12-12|
|----------------------------------------------|

Bridge:
Guitars 1 & 2
|--------------------------------------|
|--------------------------------------|
|-----------5-5-5-5-----------4-4-4-4--|
|--2-2-2-2--5-5-5-5--5-5-5-5--4-4-4-4--|
|--2-2-2-2--3-3-3-3--5-5-5-5--2-2-2-2--|
|--0-0-0-0-----------3-3-3-3-----------|

Guitar 1
|---------------------------------------------|
|---------------------------------------------|
|--9-9-9-9--5-5-5-5---------------4--4--4--4--|
|--9-9-9-9--5-5-5-5--5--5--5--5---4--4--4--4--|
|--7-7-7-7--3-3-3-3--5--5--5--5---2--2--2--2--|
|--0-0-0-0-----------3--3--3--3---------------|
|Guitar 2
|---------------------------------------------|
|---------------------------------------------|
|-----------5-5-5-5--12-12-12-12--11-11-11-11-|
|--2-2-2-2--5-5-5-5---X-X--X---X--x--x--x--x--|
|--2-2-2-2--3-3-3-3--10-10-10-10--9--9--9--9--|
|--0-0-0-0------------------------------------|

Guitar 1
|--------------------------|
|--------------------------|
|--9--9--9--9--5-5---7--7--|
|--9--9--9--9--5-5---7--7--|
|--7--7--7--7--3-3---5--5--|
|--0--0--0--0--------------|
|Guitar 2
|--------------------------|
|--------------------------|
|--12-12-12-12--9-9--11-11-|
|---x--x--x--x--x-x--x--x--|
|--10-10-10-10--7-7--9--9--|
|--------------------------| x4

Guitar 1
|-----------------------------------------------------------------|
|-----------------------------------------------------------------|
|--9-9-9-9-9-9-9-9-9-9-9-9--12-12-12-12-12-12--11-11-11-11-11-11--|
|--x-x-x-x-x-x-x-x-x-x-x-x---x--x--x--x--x--x--x---x--x--x--x--x--|
|--7-7-7-7-7-7-7-7-7-7-7-7--10-10-10-10-10-10--9---9--9--9--9--9--|
|-----------------------------------------------------------------|
|Guitar 2
|-----------------------------------------------------------------|
|-----------------------------------------------------------------|
|--------------5-5-5----------------------------4---4--4----------|
|--2-2-2-------5-5-5--------5--5--5-------------4---4--4----------|
|--2-2-2-------3-3-3--------5--5--5-------------2---2--2----------|
|--0-0-0--------------------3--3--3-------------------------------|

SOLO:
Guitar 1=just strum
|----------------|
|----------------|
|---9--5-----4---|
|---9--5--5--4---|
|---7--3--5--2---|
|---------3------| x2
|Guitar 2
|----------------|---------------|---------------|-------------------|
|----------------|---------------|---------------|-------------------|
|----------------|---------------|---------------|-------------------|
|-----9----------|---9-----------|---9-----------|-------------------|
|--/7--10-9----9-|-7---10-9----9-|-7---10-9----9-|-10-9-9-10-12-9-10-|
|--/--------10---|----------10---|----------10---|-------------------|x2

Guitar 1=just strum
|----------|
|----------|
|---9--12--|
|---9--12--|
|---7--10--|
|----------| then slide up neck
|Guitar 2
|----------------|---------------|---------------|--------------------|
|----------------|---------------|---------------|--------------------|
|----------------|---------------|---------------|--------------------|
|-----9----------|---9-----------|---9-----------|--------------------|
|--/7--10-9----9-|-7---10-9----9-|-7---10-9----9-|-10-9-9-10-12--9-10-|
|--/--------10---|----------10---|----------10---|--------------------|

Chorus:
Guitars 1 & 2
|--------------------------------------|
|--------------------------------------|
|--4-4-4-4--5-5-5-5-----------4-4-4-4--|
|--2-2-2-2--5-5-5-5--5-5-5-5--4-4-4-4--|
|--0-0-0-0--3-3-3-3--5-5-5-5--2-2-2-2--|
|--------------------3-3-3-3-----------|x2

Guitars 1
|----------------------------------------------|
|----------------------------------------------|
|--4--4--4--4--5-5-5-5--------------4--4--4--4-|
|--2--2--2--2--5-5-5-5--5--5--5--5--4--4--4--4-|
|--0--0--0--0--3-3-3-3--5--5--5--5--2--2--2--2-|
|-----------------------3--3--3--3-------------|
|Guitar 2
|----------------------------------------------|
|----------------------------------------------|
|--12-12-12-12-9-9-9-9--12-12-12-12-14-14-14-14|
|---x--x--x--x-x-x-x-x--x---x-x--x---x-x--x--x-|
|--10-10-10-10-7-7-7-7--10-10-10-10-12-12-12-12|
|----------------------------------------------|x2

Build up:
|-----------------------------|
|-----------------------------|
|--4-4-4/9-9-9-9-9/-----------|
|--4-4-4/9-9-9-9-9/-----------|
|--2-2-2/7-7-7-7-7/down neck--|
|-----------------------------|

End, enjoy! LEAVE COMMENTs    

Added On December 16th, 2013

SHARE

Comments

blog comments powered by Disqus