Sum 41 Tabs

Take A Look At Yourself

2 versions

TAB

            This is a bonus track from Underclass Hero, I think you have to buy it on iTunes...

This song is in standard tuning...if you have it dropped down..well....you can't play it basically.


~~~Intro~~~
e|--------------------------------------------------|
B|--------------------------------------------------|
G|-99--99--99--99--999-----99--99--99--99--999------|Repeat as nescessary.
D|-xx--xx--xx--xx--xxx-----xx--xx--xx--xx--xxx------|Listen to song for rhythm.
A|-77--77--77--77--777-----77--77--77--77--777------|
E|--------------------------------------------------|

e|--------------------------------------------------|
B|--------------------------------------------------|
G|-------------666--22222--444--444-----------------|
D|-22222--666--666--22222--444--444-----------------|x2
A|-22222--666--444--00000--222--222-----------------|
E|-00000--444---------------------------------------|


~~~Verse~~~ (As usual, dots mean palm muted)

Well, teachers always told me that I had to have a plan....
e|--------------------------------------------------|
B|--------------------------------------------------|
G|-----------44444444--66666666---22-2-22-2-2-2-----|
D|-22222222--44444444--66666666---22-2-22-2-2-2-----|
A|-22222222--22222222--44444444---00-0-00-0-0-0-----|
E|-00000000-----------------------------------------|
   ........  ........  ........   ..   ..   .

But their preaching something they don't understand....
e|--------------------------------------------------|
B|--------------------------------------------------|
G|-22222222------------66-6-666-6-666-6-666-66------|
D|-22222222--22222222--66-6-666-6-666-6-666-66------|
A|-00000000--22222222--44-4-444-4-444-4-444-44------|
E|-----------00000000-------------------------------|
   ........  ........  ..   ...   ...   ...

The little Hitlers of...
e|--------------------------------------------------|
B|------------------------Repeat as necessary, then-|
G|-99-9-999-9-999-9-999-9-------------22222222------|
D|-99-9-999-9-999-9-999-9-------------22222222------|
A|-77-7-777-7-777-7-777-7-------------00000000------|
E|--------------------------------------------------|
   ..   ...   ...   ...


~~~Pre-Chorus~~~

e|--------------------------------------------------|
B|--------------------------------------------------|
G|-66666--2222222--99999--4444444-------------------|
D|-66666--2222222--99999--4444444-------------------| x2
A|-44444--0000000--77777--2222222-------------------|
E|--------------------------------------------------|

Saviour or....
e|--------------------------------------------------|
B|--------------------------------------------------|
G|-2222222222222222--4444444444444444---------------|
D|-2222222222222222--4444444444444444---------------|
A|-0000000000000000--2222222222222222---------------|
E|--------------------------------------------------|


~~~Chorus~~~

I can't help you...
e|--------------------------------------------------|
B|--------------------------------------------------|
G|-99999--44444--66666---------22222222--44444444---|
D|-99999--44444--66666--66666--22222222--44444444---| x2
A|-77777--22222--44444--66666--00000000--22222222---|
E|----------------------44444-----------------------|

e|--------------------------------------------------|
B|--------------------------------------------------|
G|--------------------------------------------------|
D|-22-22-22-----------------------------------------|
A|-22-22-22-----------------------------------------|
E|-00-00-00-----------------------------------------|


~~~Verse 2~~~ (Same As Before, another guitar in the background though)

~~~Pre-Chorus~~~ (Same As Before)

~~~Chorus~~~ (Same As Before)


~~~Cool Riff~~~

e|--------------------------------------------------|
B|--------------------------------------------------|
G|--------------------------------------------------|
D|--------------------------------------------------| x 6
A|-2210--00--2221007--------------------------------|
E|--------------------------------------------------|


~~~Bridge~~~

e|--------------------------------------------------|
B|--------------------------------------------------|
G|-99999-------666--22222-44444444------------------|
D|-99999--666--666--22222-44444444--x2----2---------|
A|-77777--666--444--00000-22222222--------2-let ring|
E|--------444-----------------------------0---------|


~~~Chorus~~~ (Repeat as necessary)


~~~Outro~~~
e|--------------------------------------------------|
B|--------------------------------------------------|
G|--------------------------------------------------|
D|-22-22-22-----------------------------------------|
A|-22-22-22-----------------------------------------|
E|-00-00-00-----------------------------------------|


And thattttts it. It's a pretty easy song to play and it didn't take me long to figure 
out...the riff gave me the most trouble I think, but otherwise it was ok. I don't think 
any mistakes, but yeah, email me with corrections: liquid_fumes@hotmail.com    

Added On December 16th, 2013

SHARE

Comments

blog comments powered by Disqus

VERSIONS

ADVERTISEMENT