Sum 41 Tabs

Underclass Hero Album

1 versions

TAB

            Album: Underclass Hero
Artist: Sum 41
Tracklist:
1. Underclass Hero (tabbed by No_Falter08)
2. Walking Disaster (tabbed by northover)
3. Speak of the Devil (tabbed by Nargenfargen)
4. Dear Father (tabbed by dannytalent)
5. Count Your Last Blessings (tabbed by noviznamclaw)
6. Ma Poubelle (chords by mojomike)
7. March of the Dogs (tabbed by BlinK-Kid182)
8. The Jester (tabbed by dannytalent)
9. With Me (tabbed by kiethermatot)
10. Pull The Curtain (tabbed by No_Falter08)
11. King of Contradiction (tabbed by The 506)
12. Best of Me (tabbed by oskr_88)
13. Confusion & Frustration in Modern Times (tabbed by No_Falter08)
14. So Long Goodbye (chords by TheSum)
15. No Apologies [Bonus Track] (Tabbed by The 506)

hey everyone here's the album tab for Underclass Hero hope it helps!
add me:
www.myspace.com/gazguitarkid438709

1. Underclass Hero

Intro prt.1:
e|---------------------------------------------------|
B|---------------------------------------------------|
G|---------------------------------------------------| 2x
D|------6h7-6-------6h7-6--------6h7-6---------------|
A|----7-----------7--------00-7--------00-7------9---|
E|-00---------77-----------------------------77------|
   ..         ..           ..

Intro prt.2:
Gtr.1
e|----------------------------------------|
B|----------------------------------------|
G|-99-------------------------------------| 2x
D|-99-6h7p6--99-6h7p6--77-6h7p6--77-7-9---|
A|-77--------99--------77--------77-7-9---|
E|-----------77--------55--------55-5-7---|
   ..        ..        ..        .. 

Gtr.2
e|-------------------------------------|
B|-------------------------------------|
G|-99-9999--------------9999-----------| 2x
D|-99-xxxx--99-9999--77-xxxx--77-7-9---|
A|-77-7777--99-xxxx--77-7777--77-7-9---|
E|----------77-7777--55-------55-5-7---|
   ..       ..       ..       ..   

Verse:
Gtr.1
e|----------------------------------|
B|----------------------------------|
G|-111--9999999999999999999999999---|
D|-222--xxxxxxxxxxxxxxxxxxxxxxxxx---|
A|-222--7777777777777777777777777---|
E|-000------------------------------|

Gtr.2
e|--------------------------------------------------|
B|--------------------------------------------------|
G|--------------------------------------------------| 2x
D|------6------------6-----------6------------------| 
A|----7---7--------7---7-------7---7-------7----9---|
E|-00----------77-----------9-----------55---77-----|

Pre-Chorus:
Gtr.1
e|------------------------|
B|------------------------|
G|-11111-4444-6666--------| 2x
D|-22222-4444-6666-7777---|
A|-22222-2222-4444-7777---|
E|-00000-----------5555---|

Gtr.2
e|-------------------------------------|
B|-------------------------------------|
G|-999999999999999999999999999999999---|
D|-xxxxxxxxxxxxxxxxxxxxxxxxxxxxxxxxx---|
A|-777777777777777777777777777777777---|
E|-------------------------------------|

Chorus:
e|------------------|
B|------------------|
G|-2222-1111-4444---| 4x
D|-2222-2222-4444---|
A|-0000-2222-2222---|
E|------0000--------|

Pre-Verse 2:
e|----------------------------------------|
B|----------------------------------------|
G|-99-------------------------------------| 2x
D|-99-6h7p6--99-6h7p6--77-6h7p6--77-7-9---|
A|-77--------99--------77--------77-7-9---|
E|-----------77--------55--------55-5-7---|
   ..        ..        ..        ..

Verse 2:
Play Verse 1 w/ Jet Effect

Repeat Pre-Chorus:

Repeat Chorus:

Bridge prt.1
e|--------------------------------|
B|--------------------------------|
G|-99999999--999999--9999999999---|
D|-xxxxxxxx--xxxxxx--xxxxxxxxxx---|
A|-77777777--777777--7777777777---|
E|--------------------------------|

Bridge prt.2(Solo):
Gtr.1:Play Chorus

Gtr.2
e|----------------------------5---------|
B|--------------------------4---4-5-7---|
G|--------------------------------------| 2x
D|-22-2-4-2---2-4-6-4-4p2-4-------------|
A|----------2---------------------------|
E|--------------------------------------|

e|---5---5------------------------------------------------------------------|
B|-5---5---5~~-44-4-5-4---5b-4b---------------------------------------------|
G|----------------------4------------------------------------2-1-1h2-1------|
D|--------------------------------22-2-4-2---2-4-6--4-2-4--2-----------2~---|
A|---------------------------------------------------------------------2~---|
E|---------------------------------------------------------------------0~---|

Repeat Intro prt.1

Repeat Chorus:

Repeat Intro prt.2:

Last Chord:
e|-------|
B|-------|
G|-1-1---|
D|-2-2---|
A|-2-2---|
E|-0-0---|
   . .

End...

Special tnx to no one for this Lyrics.

Under Class Hero Lyrics:

Verse 1
And I wanna believe (Well you?re frankly nothing)
Stand on my own (A little sympathy)
Wasting the youth (I?m feeling young and useless)
Speak for yourself (Some blindfolded cause)

Chorus:
Well because we're doing fine
And we don't need to be told
That we're doing fine
Cause we won't give you control
And we don't need anything from you
Cause we'll be just fine
And we won't be bought and sold
Just like you

(A call crossing in the crowd)

Bridge:
Calling out loud with no respect
I?m not the one, just another reject
I?m the voice you affect I?ll lose and protect
I saw your up against the great America we?ll rise again"

Repeat Chorus

2. Walking Disaster

Intro
 

 Guitar 1 (Lead)


e|-------------------------------------------------11----|
B|-12-12-12-12-12-12-12-12-12-12-12-12-12-12-12-12----12-|
G|-x--x--x--x--x--x--x--x--x--x--x--x--x--x--x--x--------|
D|-9--9--9--9--9--9--9--9--9--9--9--9--9--9--9--9--------|
A|-------------------------------------------------------|
E|-------------------------------------------------------|

e|-------------------------11-----------------------------11----|
B|-12-12-12-12-12-12-12-12----12--12-12-12-12-12-12-12-12----12-|
G|-x--x--x--x--x--x--x--x---------x--x--x--x--x--x--x--x--------|
D|-9--9--9--9--9--9--9--9---------9--9--9--9--9--9--9--9--------| (1x)
A|--------------------------------------------------------------|
E|--------------------------------------------------------------|

 
 Verse


 Guitar 1 (Lead)


e|-------------------------------------------------11----|
B|-12-12-12-12-12-12-12-12-12-12-12-12-12-12-12-12----12-|
G|-x--x--x--x--x--x--x--x--x--x--x--x--x--x--x--x--------|
D|-9--9--9--9--9--9--9--9--9--9--9--9--9--9--9--9--------|
A|-------------------------------------------------------|
E|-------------------------------------------------------|

e|-------------------------11-----------------------------11----|
B|-12-12-12-12-12-12-12-12----12--12-12-12-12-12-12-12-12----12-|
G|-x--x--x--x--x--x--x--x---------x--x--x--x--x--x--x--x--------|
D|-9--9--9--9--9--9--9--9---------9--9--9--9--9--9--9--9--------| (4x)
A|--------------------------------------------------------------|
E|--------------------------------------------------------------|

 
 Guitar 2 (Rythm)

e|--------------------------------------------------------------------|
B|--------------------------------------------------------------------|
G|-4-4-4-4-4-4-4-4----------------------------------------------------|
D|-4-4-4-4-4-4-4-4--4-4-4-4-4-4-4-4--6-6-6-6-6-6-6-6--2-2-2-2-2-2-2-2-| (2x)
A|-2-2-2-2-2-2-2-2--4-4-4-4-4-4-4-4--6-6-6-6-6-6-6-6--2-2-2-2-2-2-2-2-|
E|------------------2-2-2-2-2-2-2-2--4-4-4-4-4-4-4-4--0-0-0-0-0-0-0-0-|

e|--------------------------------------------------------------------|
B|--------------------------------------------------------------------|
G|-----------------------------------4-4-4-4-4-4-4-4------------------|
D|-6-6-6-6-6-6-6-6--2-2-2-2-2-2-2-2--4-4-4-4-4-4-4-4--4-4-4-4-4-4-4-4-| (2x)
A|-6-6-6-6-6-6-6-6--2-2-2-2-2-2-2-2--2-2-2-2-2-2-2-2--4-4-4-4-4-4-4-4-|
E|-4-4-4-4-4-4-4-4--0-0-0-0-0-0-0-0-------------------2-2-2-2-2-2-2-2-|


 Interlude

 
 Guitar 2 (Rythm)

e|----------------------------------------------------|
B|----------------------------------------------------|
G|----------1h2p1h2p1h2p1h2p1h2p1h2-------------------|
D|-6~-4~-2~-------------------------------------------|
A|-6~-4~-2~-------------------------------------------|
E|-4~-2~-0~-------------------------------------------|

 
 Guitar 1 (lead)

e|---------7b*--------------------------------------------------------|
B|--------------------------------------------------------------------|
G|--------------------------------------------------------------------|
D|--------------------------------------------------------------------|
A|--------------------------------------------------------------------|
E|--------------------------------------------------------------------|


 Pre-Verse


 Guitar 1 (lead)
 
e|-------------------------------------------------------------------------|
B|-------------------------------------------------------------------------|
G|-4---/-11-\---8-\---4---/-11-\---8-\---4---/-11-\---8-\---4---/-11-\---8-|
D|-x--/--x---\--x--\--x--/--x---\--x--\--x--/--x---\--x--\--x--/--x---\--x-|
A|-2-/---9----\-6---\-2-/---9----\-6---\-2-/---9----\-6---\-2-/---9----\-6-|
E|-------------------------------------------------------------------------|

e|------------------------------------------------------|
B|------------------------------------------------------|
G|-11-11-11-11-11-11-11-11--13-13-13-13-13-13-13-13-----|
D|-x--x--x--x--x--x--x--x---x--x--x--x--x--x--x--x------|
A|-9--9--9--9--9--9--9--9---11-11-11-11-11-11-11-11-----|
E|------------------------------------------------------|

e|------------------------------------------------------|
B|------------------------------------------------------|
G|-15-15-15-15-15-15-15-15--16-16-16-16-16-16-16-16-\---|
D|-x--x--x--x--x--x--x--x---x--x--x--x--x--x--x--x---\--|
A|-13-13-13-13-13-13-13-13--14-14-14-14-14-14-14-14---\-|
E|------------------------------------------------------|


 Guitar 2 (rythm)


e|--------------------------------------------------------------------|
B|--------------------------------------------------------------------|
G|-4-4-4-4-4-4-4-4----------------------------------------------------|
D|-4-4-4-4-4-4-4-4--6-6-6-6-6-6-6-6--4-4-4-4-4-4-4-4--2-2-2-2-2-2-2-2-| (1x)
A|-2-2-2-2-2-2-2-2--6-6-6-6-6-6-6-6--4-4-4-4-4-4-4-4--2-2-2-2-2-2-2-2-|
E|------------------4-4-4-4-4-4-4-4--2-2-2-2-2-2-2-2--0-0-0-0-0-0-0-0-|


 Verse

 
 Guitar 1 (lead)

e|---------------------------------|
B|---------------------------------|
G|-4-4-4-4-4-4-4-4-4-4-4-4-4-4-4-4-|
D|-x-x-x-x-x-x-x-x-x-x-x-x-x-x-x-x-| (6x)
A|-2-2-2-2-2-2-2-2-2-2-2-2-2-2-2-2-|
E|---------------------------------|


 Pre-Chorus

 
 Guitar 2 (rythm)

e|-----------------------------------|
B|-----------------------------------|
G|------------------4-4-4-4----------|
D|-2-2-2-2-2-2-2-2--4-4-4-4--4-4-4-4-| (2x)
A|-2-2-2-2-2-2-2-2--2-2-2-2--4-4-4-4-|
E|-0-0-0-0-0-0-0-0-----------2-2-2-2-|


 Guitar 1 (lead)

e|---------------------------------|
B|---------------------------------|
G|-4---/-3-\---4-\---6---/-4---/-3-|
D|-x--/--x--\--x--\--x--/--x--/--x-| (1x)
A|-2-/---1---\-2---\-4-/---2-/---1-|
E|---------------------------------|


 Guitar 2 (rythm)

e|-----------------------------------|
B|-----------------------------------|
G|------------------4-4-4-4----------|
D|-2-2-2-2-2-2-2-2--4-4-4-4--4-4-4-4-| (1x)
A|-2-2-2-2-2-2-2-2--2-2-2-2--4-4-4-4-|
E|-0-0-0-0-0-0-0-0-----------2-2-2-2-|

e|-----------------------------|
B|-----------------------------|
G|------------------4-4-4-4----|
D|-2-2-2-2-2-2-2-2--4-4-4-4--4-| (1x)
A|-2-2-2-2-2-2-2-2--2-2-2-2--4-|
E|-0-0-0-0-0-0-0-0-----------2-|



 Chorus


 Guitar 2 (rythm)

e|------------------------------------|
B|------------------------------------|
G|-4-4-4-4----------------------------|
D|-4-4-4-4--6-6-6-6--4-4-4-4--2-2-2-2-| (1x)
A|-2-2-2-2--6-6-6-6--4-4-4-4--2-2-2-2-|
E|----------4-4-4-4--2-2-2-2--0-0-0-0-|

e|------------------------------|
B|------------------------------|
G|-4-4-4-4----------------------|
D|-4-4-4-4--6-6-6-6--4-4-4-4--2-| (1x)
A|-2-2-2-2--6-6-6-6--4-4-4-4--2-|
E|----------4-4-4-4--2-2-2-2--0-|



 Interlude

 
 Guitar 1 (lead)

e|-------------------------------------------------|
B|-------------------------------------------------|
G|-4-4-4-4-4-4-4-4-4-4-4-4-4-4-4-4-4-4-4-4-4-4-4-4-|
D|-x-x-x-x-x-x-x-x-x-x-x-x-x-x-x-x-x-x-x-x-x-x-x-x-| (1x)
A|-2-2-2-2-2-2-2-2-2-2-2-2-2-2-2-2-2-2-2-2-2-2-2-2-|
E|-------------------------------------------------|

 
 Pre-Verse


 Guitar 1 (lead)
 
e|-------------------------------------------------------------------------|
B|-------------------------------------------------------------------------|
G|-4---/-11-\---8-\---4---/-11-\---8-\---4---/-11-\---8-\---4---/-11-\---8-|
D|-x--/--x---\--x--\--x--/--x---\--x--\--x--/--x---\--x--\--x--/--x---\--x-|
A|-2-/---9----\-6---\-2-/---9----\-6---\-2-/---9----\-6---\-2-/---9----\-6-|
E|-------------------------------------------------------------------------|

e|------------------------------------------------------|
B|------------------------------------------------------|
G|-11-11-11-11-11-11-11-11--13-13-13-13-13-13-13-13-----|
D|-x--x--x--x--x--x--x--x---x--x--x--x--x--x--x--x------|
A|-9--9--9--9--9--9--9--9---11-11-11-11-11-11-11-11-----|
E|------------------------------------------------------|

e|------------------------------------------------------|
B|------------------------------------------------------|
G|-15-15-15-15-15-15-15-15--16-16-16-16-16-16-16-16-\---|
D|-x--x--x--x--x--x--x--x---x--x--x--x--x--x--x--x---\--|
A|-13-13-13-13-13-13-13-13--14-14-14-14-14-14-14-14---\-|
E|------------------------------------------------------|


 Guitar 2 (rythm)


e|--------------------------------------------------------------------|
B|--------------------------------------------------------------------|
G|-4-4-4-4-4-4-4-4----------------------------------------------------|
D|-4-4-4-4-4-4-4-4--6-6-6-6-6-6-6-6--4-4-4-4-4-4-4-4--2-2-2-2-2-2-2-2-| (1x)
A|-2-2-2-2-2-2-2-2--6-6-6-6-6-6-6-6--4-4-4-4-4-4-4-4--2-2-2-2-2-2-2-2-|
E|------------------4-4-4-4-4-4-4-4--2-2-2-2-2-2-2-2--0-0-0-0-0-0-0-0-|


 Verse


 Guitar 2 (rythm)

e|--------------------------------------------------------------------|
B|--------------------------------------------------------------------|
G|-4-4-4-4-4-4-4-4----------------------------------------------------|
D|-4-4-4-4-4-4-4-4--6-6-6-6-6-6-6-6--4-4-4-4-4-4-4-4--2-2-2-2-2-2-2-2-| (1x)
A|-2-2-2-2-2-2-2-2--6-6-6-6-6-6-6-6--4-4-4-4-4-4-4-4--2-2-2-2-2-2-2-2-|
E|------------------4-4-4-4-4-4-4-4--2-2-2-2-2-2-2-2--0-0-0-0-0-0-0-0-|
     . . . . . . .    . . . . . . .    . . . . . . .    . . .   .   .

e|--------------------------------------------------------------------|
B|--------------------------------------------------------------------|
G|-4-4-4-4-4-4-4-4----------------------------------------------------|
D|-4-4-4-4-4-4-4-4--6-6-6-6-6-6-6-6--4-4-4-4-4-4-4-4--2-2-2-2-2-2-2-2-| (1x)
A|-2-2-2-2-2-2-2-2--6-6-6-6-6-6-6-6--4-4-4-4-4-4-4-4--2-2-2-2-2-2-2-2-|
E|------------------4-4-4-4-4-4-4-4--2-2-2-2-2-2-2-2--0-0-0-0-0-0-0-0-|
     . . . . . . .    . . . . . . .    . . . . . . .    . . . . . . .


 Pre-Chorus
 
 
 Guitar 2 (rythm)

e|-----------------------------------|
B|-----------------------------------|
G|------------------4-4-4-4----------|
D|-2-2-2-2-2-2-2-2--4-4-4-4--4-4-4-4-| (2x)
A|-2-2-2-2-2-2-2-2--2-2-2-2--4-4-4-4-|
E|-0-0-0-0-0-0-0-0-----------2-2-2-2-|


 Guitar 1 (lead)

e|---------------------------------|
B|---------------------------------|
G|-4---/-3-\---4-\---6---/-4---/-3-|
D|-x--/--x--\--x--\--x--/--x--/--x-| (1x)
A|-2-/---1---\-2---\-4-/---2-/---1-|
E|---------------------------------|


 Guitar 2 (rythm)

e|-----------------------------------|
B|-----------------------------------|
G|------------------4-4-4-4----------|
D|-2-2-2-2-2-2-2-2--4-4-4-4--4-4-4-4-| (1x)
A|-2-2-2-2-2-2-2-2--2-2-2-2--4-4-4-4-|
E|-0-0-0-0-0-0-0-0-----------2-2-2-2-|

e|-----------------------------|
B|-----------------------------|
G|------------------4-4-4-4----|
D|-2-2-2-2-2-2-2-2--4-4-4-4--4-| (1x)
A|-2-2-2-2-2-2-2-2--2-2-2-2--4-|
E|-0-0-0-0-0-0-0-0-----------2-|

 
 Chorus


 Guitar 2 (rythm)

e|------------------------------------|
B|------------------------------------|
G|-4-4-4-4----------------------------|
D|-4-4-4-4--6-6-6-6--4-4-4-4--2-2-2-2-| (1x)
A|-2-2-2-2--6-6-6-6--4-4-4-4--2-2-2-2-|
E|----------4-4-4-4--2-2-2-2--0-0-0-0-|

e|------------------------------|
B|------------------------------|
G|-4-4-4-4----------------------|
D|-4-4-4-4--6-6-6-6--4-4-4-4--2-| (1x)
A|-2-2-2-2--6-6-6-6--4-4-4-4--2-|
E|----------4-4-4-4--2-2-2-2--0-|



 Bridge


 Guitar 2 (rythm)

e|--------------------|
B|--------------------|
G|-----------4~-------|
D|-6~-4~-2~--4~-4~-2~-| (5x)
A|-6~-4~-2~--2~-4~-2~-|
E|-4~-2~-0~-----2~-0~-|


 Guitar 1 (lead)


e|---------------------------------------------|
B|---------------------------------------------|
G|-4-4-4-4---/-6-6-6-6---/-8-8-8-8---/-9-9-9-9-|
D|-x-x-x-x--/--x-x-x-x--/--x-x-x-x--/--x-x-x-x-| (1x)
A|-2-2-2-2-/---4-4-4-4-/---6-6-6-6-/---7-7-7-7-|
E|---------------------------------------------|

e|---------------------------------------|
B|---------------------------------------|
G|-4-4-4-4---/-6-6-6-6---/-8-8-8-8---/-9-|
D|-x-x-x-x--/--x-x-x-x--/--x-x-x-x--/--x-|
A|-2-2-2-2-/---4-4-4-4-/---6-6-6-6-/---7-|
E|---------------------------------------|


 Pre-Chorus

 
 Guitar 2 (rythm)

e|-----------------------------------|
B|-----------------------------------|
G|------------------4-4-4-4----------|
D|-2-2-2-2-2-2-2-2--4-4-4-4--4-4-4-4-| (2x)
A|-2-2-2-2-2-2-2-2--2-2-2-2--4-4-4-4-|
E|-0-0-0-0-0-0-0-0-----------2-2-2-2-|


 Guitar 1 (lead)

e|---------------------------------|
B|---------------------------------|
G|-4---/-3-\---4-\---6---/-4---/-3-|
D|-x--/--x--\--x--\--x--/--x--/--x-| (1x)
A|-2-/---1---\-2---\-4-/---2-/---1-|
E|---------------------------------|


 Guitar 2 (rythm)

e|-----------------------------------|
B|-----------------------------------|
G|------------------4-4-4-4----------|
D|-2-2-2-2-2-2-2-2--4-4-4-4--4-4-4-4-| (1x)
A|-2-2-2-2-2-2-2-2--2-2-2-2--4-4-4-4-|
E|-0-0-0-0-0-0-0-0-----------2-2-2-2-|

e|-----------------------------|
B|-----------------------------|
G|------------------4-4-4-4----|
D|-2-2-2-2-2-2-2-2--4-4-4-4--4-| (1x)
A|-2-2-2-2-2-2-2-2--2-2-2-2--4-|
E|-0-0-0-0-0-0-0-0-----------2-|


 Chorus


 Guitar 2 (rythm)

e|------------------------------------|
B|------------------------------------|
G|-4-4-4-4----------------------------|
D|-4-4-4-4--6-6-6-6--4-4-4-4--2-2-2-2-| (1x)
A|-2-2-2-2--6-6-6-6--4-4-4-4--2-2-2-2-|
E|----------4-4-4-4--2-2-2-2--0-0-0-0-|

e|------------------------------|
B|------------------------------|
G|-4-4-4-4----------------------|
D|-4-4-4-4--6-6-6-6--4-4-4-4--2-| (1x)
A|-2-2-2-2--6-6-6-6--4-4-4-4--2-|
E|----------4-4-4-4--2-2-2-2--0-|



 Interlude


 Guitar 1


e|-------------------------------------------------------------------------|
B|-------------------------------------------------------------------------|
G|-4---/-11-\---8-\---4---/-11-\---8-\---4---/-11-\---8-\---4---/-11-\---8-|
D|-x--/--x---\--x--\--x--/--x---\--x--\--x--/--x---\--x--\--x--/--x---\--x-|
A|-2-/---9----\-6---\-2-/---9----\-6---\-2-/---9----\-6---\-2-/---9----\-6-|
E|-------------------------------------------------------------------------|

e|-------------------------------------------------------------------------|
B|-------------------------------------------------------------------------|
G|-4---/-11-\---8-\---4---/-11-\---8-\---4---/-6--\---8-\---4---/-8--\---8-|
D|-x--/--x---\--x--\--x--/--x---\--x--\--x--/--x---\--x--\--x--/--x---\--x-|
A|-2-/---9----\-6---\-2-/---9----\-6---\-2-/---4----\-6---\-2-/---4----\-6-|
E|-------------------------------------------------------------------------|

e|-------------------------------------------------------------------------|
B|-------------------------------------------------------------------------|
G|-4---/-11-\---8-\---4---/-11-\---8-\---4---/-11-\---8-\---4---/-11-\---8-|
D|-x--/--x---\--x--\--x--/--x---\--x--\--x--/--x---\--x--\--x--/--x---\--x-|
A|-2-/---9----\-6---\-2-/---9----\-6---\-2-/---9----\-6---\-2-/---9----\-6-|
E|-------------------------------------------------------------------------|

e|------------------------------------------------------|
B|------------------------------------------------------|
G|-11-11-11-11-11-11-11-11--13-13-13-13-13-13-13-13-----|
D|-x--x--x--x--x--x--x--x---x--x--x--x--x--x--x--x------|
A|-9--9--9--9--9--9--9--9---11-11-11-11-11-11-11-11-----|
E|------------------------------------------------------|

e|------------------------------------------------------|
B|------------------------------------------------------|
G|-15-15-15-15-15-15-15-15--16-16-16-16-16-16-16-16-\---|
D|-x--x--x--x--x--x--x--x---x--x--x--x--x--x--x--x---\--|
A|-13-13-13-13-13-13-13-13--14-14-14-14-14-14-14-14---\-|
E|------------------------------------------------------|


 Guitar 2 (rythm)


e|------------------------------------|
B|------------------------------------|
G|-4-4-4-4----------------------------|
D|-4-4-4-4--6-6-6-6--4-4-4-4--2-2-2-2-| (1x)
A|-2-2-2-2--6-6-6-6--4-4-4-4--2-2-2-2-|
E|----------4-4-4-4--2-2-2-2--0-0-0-0-|

e|------------------------------|
B|------------------------------|
G|-4-4-4-4----------------------|
D|-4-4-4-4--6-6-6-6--4-4-4-4--2-| (1x)
A|-2-2-2-2--6-6-6-6--4-4-4-4--2-|
E|----------4-4-4-4--2-2-2-2--0-|


 Outro

 
 Guitar 2 (rythm)

e|--------------------------------------------------------------------|
B|--------------------------------------------------------------------|
G|-4-4-4-4-4-4-4-4----------------------------------------------------|
D|-4-4-4-4-4-4-4-4--4-4-4-4-4-4-4-4--6-6-6-6-6-6-6-6--2-2-2-2-2-2-2-2-| (2x)
A|-2-2-2-2-2-2-2-2--4-4-4-4-4-4-4-4--6-6-6-6-6-6-6-6--2-2-2-2-2-2-2-2-|
E|------------------2-2-2-2-2-2-2-2--4-4-4-4-4-4-4-4--0-0-0-0-0-0-0-0-|
 


| /  slide up
| \  slide down
| h  hammer-on
| p  pull-off
| ~  vibrato
| +  harmonic
| x  mute note
| *  feedback
| .  palm mute


3. Speak of the Devil

Intro pt1 (singing): No guiutar

Intro Pt2: (this part is a little confusing with the guitars switching back and forth)
Guitar 1
|---------------------------------|
|---------------------------------|
|---6---6---6---6---6---6---6---6-|
|-4---4---3---3---4---4---3---3---|
|---------------------------------|
|---------------------------------|

Guitar 2
|---------------------|
|---------------------|
|---------------------|
|-444---------------4-|
|-444------4--4--4--4-|
|-222-2-2--1--1--1--2-|

Guitar 1
|---------------------------------|
|---------------------------------|
|---6---6---6---6---3---3---------|
|-4---4---3---3---1---1-----6---6-|
|-------------------------4---4---|
|---------------------------------|

Guitar 2
|---------------------|
|---------------------|
|---------------------|
|-444---------------4-|
|-444------4--4--4--4-|
|-222-2-2--1--1--1--2-|

Now they play at the same time! Yay! (they still have different parts though.)
Guitar 1
|---------------------------------|
|---------------------------------|
|---6---6---6---6---3---3---------|
|-4---4---3---3---1---1-----6---6-|
|-------------------------4---4---|
|---------------------------------|
|
|Guitar 2
|---------------------------------|
|---------------------------------|
|-----------------8-8-8-8-6-6-6-6-|
|-4-4-4-4-4-4-4-4-8-8-8-8-6-6-6-6-|
|-4-4-4-4-4-4-4-4-6-6-6-6-4-4-4-4-|
|-2-2-2-2-1-1-1-1-----------------|

Both
|------------------|
|------------------|
|------------------|
|-444--------------|
|-444------4--4--4-|
|-222-2-2--1--1--1-|

Verse
Guitar 1
|----------------------------------|
|---7---7---4---4------------------|
|--6-6-6-6-3-3-3-3--4---4---6---6--|
|-4---4---1---1----4-4-4-4-6-6-6-6-|
|-----------------2---2---4---4----|
|----------------------------------|
|
|Guitar 2
|-----|
|-----|
|-11\-|
|-11\-|
|-9\--|
|-----|
(I've, seen many a face...)

Guitar 1
|----------------------------------|
|---7---7---4---4------------------|
|--6-6-6-6-3-3-3-3--4---4---6---6--|
|-4---4---1---1----4-4-4-4-6-6-6-6-|
|-----------------2---2---4---4----|
|----------------------------------|x3
(Was here before Christ...)

Pre chorus:
Guitar 4
|-------------------------------------------|
|-7~---7~-----------------------------------|
|-6~---6~---4-4-4-4-4-4-4-4-6-6-6-6-6-6-6-6-|
|-4~---4~---4-4-4-4-4-4-4-4-6-6-6-6-6-6-6-6-|
|-----------2-2-2-2-2-2-2-2-4-4-4-4-4-4-4-4-|
|-------------------------------------------|

Chorus
Guitar 1 and 2
|-----------------------------------------------------------------|
|-----------------------------------------------------------------|
|-8-8-8-8-8-8-8-8-4-4-4-4-4-4-4-4---------------------------------|
|-8-8-8-8-8-8-8-8-4-4-4-4-4-4-4-4-4-4-4-4-4-4-4-4-4-4-4-4---------|
|-6-6-6-6-6-6-6-6-2-2-2-2-2-2-2-2-4-4-4-4-4-4-4-4-4-4-4-4---------|
|---------------------------------2-2-2-2-2-2-2-2-1-1-1-1-2---1---|
I've been waiting for the chance...

|-----------------------------------------------------------------|
|-----------------------------------------------------------------|
|-8-8-8-8-8-8-8-8-4-4-4-4-4-4-4-4-----------------3-3-3-3-3-3-3-3-|
|-8-8-8-8-8-8-8-8-4-4-4-4-4-4-4-4-4-4-4-4-4-4-4-4-3-3-3-3-3-3-3-3-|
|-6-6-6-6-6-6-6-6-2-2-2-2-2-2-2-2-4-4-4-4-4-4-4-4-1-1-1-1-1-1-1-1-|
|---------------------------------2-2-2-2-2-2-2-2-----------------|
So nice of you to speak of me...

|-----------------------------------------------------------------|
|-----------------------------------------------------------------|
|-4-4-4-4---------4-4-4-4---------4-4-4-4---------6-6-6-6-6-6-6-6-|
|-4-4-4-4-4-4-4-4-4-4-4-4-4-4-4-4-4-4-4-4-4-4-4-4-6-6-6-6-6-6-6-6-|
|-2-2-2-2-4-4-4-4-2-2-2-2-4-4-4-4-2-2-2-2-4-4-4-4-4-4-4-4-4-4-4-4-|
|---------2-2-2-2---------2-2-2-2---------2-2-2-2-----------------|
Dead end slave, from the altar to the grave...

Post chorus
|---------------------------------|
|---------------------------------|
|---6---6---6---6---6---6---6---6-|
|-4---4---3---3---4---4---3---3---|
|---------------------------------|
|---------------------------------|

Play verse and pre chorus again

Chorus 2
Both guitars
|-----------------------------------------------------------------|
|-----------------------------------------------------------------|
|-8-8-8-8-8-8-8-8-4-4-4-4-4-4-4-4---------------------------------|
|-8-8-8-8-8-8-8-8-4-4-4-4-4-4-4-4-4-4-4-4-4-4-4-4-4-4-4-4---------|
|-6-6-6-6-6-6-6-6-2-2-2-2-2-2-2-2-4-4-4-4-4-4-4-4-4-4-4-4---------|
|---------------------------------2-2-2-2-2-2-2-2-1-1-1-1-2---1---|
I've been waiting for the chance...

|-----------------------------------------------------------------|
|-----------------------------------------------------------------|
|-8-8-8-8-8-8-8-8-4-4-4-4-4-4-4-4-----------------3-3-3-3-3-3-3-3-|
|-8-8-8-8-8-8-8-8-4-4-4-4-4-4-4-4-4-4-4-4-4-4-4-4-3-3-3-3-3-3-3-3-|
|-6-6-6-6-6-6-6-6-2-2-2-2-2-2-2-2-4-4-4-4-4-4-4-4-1-1-1-1-1-1-1-1-|
|---------------------------------2-2-2-2-2-2-2-2-----------------|
So sick of you to speak of me...

|-----------------------------------------------------------------|
|-----------------------------------------------------------------|
|-4-4-4-4---------4-4-4-4---------4-4-4-4---------6-6-6-6-x-x-x-x-|
|-4-4-4-4-4-4-4-4-4-4-4-4-4-4-4-4-4-4-4-4-4-4-4-4-6-6-6-6-x-x-x-x-|
|-2-2-2-2-4-4-4-4-2-2-2-2-4-4-4-4-2-2-2-2-4-4-4-4-4-4-4-4-x-x-x-x-|
|---------2-2-2-2---------2-2-2-2---------2-2-2-2-----------------|
Dead end slave, from the altar to the grave...

|-----------------------------------------------------------------|
|-----------------------------------------------------------------|
|-4-4-4-4---------4-4-4-4---------4-4-4-4---------6-6-6-6-6-6-6-6-|
|-4-4-4-4-4-4-4-4-4-4-4-4-4-4-4-4-4-4-4-4-4-4-4-4-6-6-6-6-6-6-6-6-|
|-2-2-2-2-4-4-4-4-2-2-2-2-4-4-4-4-2-2-2-2-4-4-4-4-4-4-4-4-4-4-4-4-|
|---------2-2-2-2---------2-2-2-2---------2-2-2-2-----------------|
Dead end slave, from the altar to the grave...

Outro: no guitar except guitar 3


4. Dear Father

Intro (on second time, i think its a piano that comes in so don't get confused)
Guitar 2
E|-----------------------------------------------------------------|
B|-----------------------------------------------------------------|x2
G|-4-4-4-4-6-6-6-6-8-8-8-8-8-8-8-8-6-6-6-6-8-8-8-8-4-4-4-4-4-4-4-4-|
D|-4-4-4-4-6-6-6-6-8-8-8-8-8-8-8-8-6-6-6-6-8-8-8-8-4-4-4-4-4-4-4-4-|
A|-2-2-2-2-4-4-4-4-6-6-6-6-6-6-6-6-4-4-4-4-6-6-6-6-2-2-2-2-2-2-2-2-|
E|-----------------------------------------------------------------|

Guitar 1
E|-----------------------------------------------------------------|
B|-----0-2--0-2-0-----0-2--0-2-0-----0-2--0-2-0--4-2--0-4-2--0-2-0-|x2
G|-----------------------------------------------------------------|
D|-----------------------------------------------------------------|
A|-2-2------------2-2------------4-4-------------------------------|
E|-----------------------------------------------------------------|

Verse
Guitar 1
E|-----2-----2------2-----2------2-----2------2-----2--|
B|-0-0---0-0-------------------------------------------|x2
G|--------------3-3---3-3----1-1---1-1-----------------|
D|----------------------------------------2-2---2-2----|
A|-----------------------------------------------------|
E|-----------------------------------------------------|

Intro x2

Verse
Guitar 1
E|-----2-----2------2-----2------2-----2------2-----2--|
B|-0-0---0-0-------------------------------------------|x2
G|--------------3-3---3-3----1-1---1-1-----------------|
D|----------------------------------------2-2---2-2----|
A|-----------------------------------------------------|
E|-----------------------------------------------------|
Try to keep the timing the same between these two parts.
Guitar 2
E|-----------------------------------------------------------------|
B|-----------------------------------------------------------------|x2
G|-4-4-4-4-4-4-4-4-------------------------------------------------|
D|-4-4-4-4-4-4-4-4-4-4-4-4-4-4-4-4-6-6-6-6-6-6-6-6-2-2-2-2-2-2-2-2-|
A|-2-2-2-2-2-2-2-2-4-4-4-4-4-4-4-4-6-6-6-6-6-6-6-6-2-2-2-2-2-2-2-2-|
E|-----------------2-2-2-2-2-2-2-2-4-4-4-4-4-4-4-4-0-0-0-0-0-0-0-0-|
PM................................................................

Intro x2

Chorus
1st time play without E5 chord, you play brackets below \/ \/ \/
Guitar 1
E|------------------------------------------------(7---7---7---7--)|
B|------------------------------------------------(--5---5---5---5)|x2
G|-4-4-4-4-4-4-4-4-------------------------------------------------|
D|-4-4-4-4-4-4-4-4-4-4-4-4-4-4-4-4-6-6-6-6-6-6-6-6-2---------------|
A|-2-2-2-2-2-2-2-2-4-4-4-4-4-4-4-4-6-6-6-6-6-6-6-6-2---------------|
E|-----------------2-2-2-2-2-2-2-2-4-4-4-4-4-4-4-4-0---------------|

then 2nd time with E5 chord, without brackets above /\ /\ /\
Guitar 2
E|-----------------------------------------------------------------|
B|-----------------------------------------------------------------|x2
G|-4-4-4-4-4-4-4-4-6-6-6-6-6-6-6-6---------------------------------|
D|-4-4-4-4-4-4-4-4-6-6-6-6-6-6-6-6-6-6-6-6-6-6-6-6-2---------------|
A|-2-2-2-2-2-2-2-2-4-4-4-4-4-4-4-4-6-6-6-6-6-6-6-6-2---------------|
E|---------------------------------4-4-4-4-4-4-4-4-0---------------|

Post-Chorus
Guitar 2
E|-----------------------------------------------------------------|
B|-----------------------------------------------------------------|
G|-4-4-4-4-4-4-4-4-------------------------------------------------|
D|-4-4-4-4-4-4-4-4-4-4-4-4-4-4-4-4-6-6-6-6-6-6-6-6-2-2-2-2-2-2-2-2-|
A|-2-2-2-2-2-2-2-2-4-4-4-4-4-4-4-4-6-6-6-6-6-6-6-6-2-2-2-2-2-2-2-2-|
E|-----------------2-2-2-2-2-2-2-2-4-4-4-4-4-4-4-4-0-0-0-0-0-0-0-0-|

Intro x2

Chorus x4

Intro x2 Guitar 1 faintly heard.

Verse x4 without Guitar 2 doing the palm muting.

Chorus Distorted Heavily x4, first two times just power chords without any extra notes 
in the choruses before. Then last two times play the extra notes in brackets at the end 
the third and fourth chorus.

End on:
E|---|
B|---|
G|-4-|
D|-4-|
A|-2-|
E|---|


5. Count Your Last Blessings

the song starts with the piano which continues throughout the verse

VERSE
e|---------------------------------------------------------------------|
B|---------------------------------------------------------------------|
G|---------------------------------------------------------------------|
D|---------------------------------------------------------------------|
A|-9999999999999999-7777777777777777-2222222222222222-5555555555555555-|
E|-7777777777777777-5555555555555555-0000000000000000-3333333333333333-|
   ................ ................ ................ ................

PRE-CHORUS:
e|-----------------|
B|-----------------|
G|---44------------|
D|-----22445544224-|
A|-22--------------|
E|-----------------|
   ........

CHORUS:
e|-------------------------------------------------------------------------|
B|-------------------------------------------------------------------------|
G|-44444444-77777777-------------------44444444-77777777-------------------|
D|-44444444-77777777-55555555-44444444-44444444-77777777-55555555-44444444-|
A|-22222222-55555555-55555555-44444444-22222222-55555555-55555555-44444444-|
E|-------------------33333333-22222222-------------------33333333-22222222-|

e|------------------------------|
B|------------------------------|
G|-44444444-------------------7-|
D|-44444444-44444444-55555555-7-|
A|-22222222-44444444-55555555-5-|
E|----------22222222-33333333---|

INTERLUDE:
Guitar 1
e|--------------------------------------|
B|--------------------------------------|
G|-4---------7---------4---------7------|
D|-4----5----7----4----4----5----7----4-|
A|-2----5----5----4----2----5----5----4-|
E|------3---------2---------3---------2-|

e|---------------------------------------------------------------------|
B|---------------------------------------------------------------------|
G|---------------------------------------------------------------------|
D|-4444444444444444------------------7777777777777777------------------|
A|-2222222222222222-5555555555555555-5555555555555555-4444444444444444-|
E|------------------3333333333333333------------------2222222222222222-|
   ................ ................ ................ ................

Guitar 2
e|---------------------------------------------|
B|------------10-8-7---------------------------|
G|---11-9-11---------9-----11-9-----11-9-------|
D|-9--------------------12------12-------12-11-|
A|---------------------------------------------|
E|---------------------------------------------|

       Guitar 1                                Guitar 2
e|---------------------------   ||   e|-------------------------|
B|---------------------------   ||   B|-------------------------|
G|-4444444444444444444444-44-   ||   G|-44----44-------44----44-|
D|-xxxxxxxxxxxxxxxxxxxxxx-44-   ||   D|-44----44-------44----44-|
A|-2222222222222222222222-22-   ||   A|-22----22-------22----22-|
E|---------------------------   ||   E|-------------------------|

CHORUS:
e|-------------------------------------------------------------------------|
B|-------------------------------------------------------------------------|
G|-44444444-77777777-------------------44444444-77777777-------------------|
D|-44444444-77777777-55555555-44444444-44444444-77777777-55555555-44444444-|
A|-22222222-55555555-55555555-44444444-22222222-55555555-55555555-44444444-|
E|-------------------33333333-22222222-------------------33333333-22222222-|

e|-------------------------------------|
B|-------------------------------------|
G|-44444444-------------------7777xxxx-|
D|-44444444-44444444-55555555-7777xxxx-|
A|-22222222-44444444-55555555-5555xxxx-|
E|----------22222222-33333333----------|

e|-------------------------------------------------------------------------|
B|-------------------------------------------------------------------------|
G|-44444444-77777777-------------------44444444-77777777-------------------|
D|-44444444-77777777-55555555-44444444-44444444-77777777-55555555-44444444-|
A|-22222222-55555555-55555555-44444444-22222222-55555555-55555555-44444444-|
E|-------------------33333333-22222222-------------------33333333-22222222-|

e|------------------------------|
B|------------------------------|
G|-44444444-------------------7-|
D|-44444444-44444444-55555555-7-|
A|-22222222-44444444-55555555-5-|
E|----------22222222-33333333---|

       Guitar 1                                Guitar 2
e|---------------------------   ||   e|-------------------------|
B|---------------------------   ||   B|-------------------------|
G|-4444444444444444444444-44-   ||   G|-44----44-------44----44-|
D|-xxxxxxxxxxxxxxxxxxxxxx-44-   ||   D|-44----44-------44----44-|
A|-2222222222222222222222-22-   ||   A|-22----22-------22----22-|
E|---------------------------   ||   E|-------------------------|

. : Palm Mute
x : Dead Note


6. Ma Poubelle

Note: Sometimes the piano plays the chords in different octaves so
      a G or D doesn't always have the same pitch throughout the song
      even though its still the same basic chord.

    G     Em     Am     D     B     C     Cm    A
e---3-----0------0------2-----2-----0-----3-----5---|
B---3-----0------1------3-----4-----1-----4-----5---|
G---4-----0------2------2-----4-----0-----5-----6---|
D---5-----2------2------0-----4-----2-----5-----7---|
A---5-----2------0------------2-----3-----3-----7---|
E---3-----0-------------------------------------5---|

G     Em    Am     D
Tu es ma mademoiselle
G     Em    Am      D
Tu es ma petite poubelle
   G          B      Em        C
Je chercherai des ordures pour toi
   G             D              G
Je commencerai dedans mes pantalons
Cm                          G
Dans votre oeil se truove une petite pleur
  Cm                G      D
Mais je suis pas un autre Coeur
Cm                G
Tu sais tu es ma petite fleur
         A                       D
Avec une plotte qui est comme du beure
G     Em    Am     D
Tu es ma mademoiselle
G     Em    Am      D
Tu es ma petite poubelle             *At the end here there actually
   G          B      Em        C      is A guitar playing these chords
Je chercherai des ordures pour toi     as power chords
   G             D              G
Je commencerai dedans mes pantalons

7. March of the Dogs

Intro prt.1:
Gtr.2
e|------------------------|
B|------------------------|
G|---xxx--xxx--xxx--xxx---|
D|---xxx--xxx--xxx--xxx---|
A|-22222222222222222222---|
E|------------------------|

Intro prt.2
Gtr.1:
e|---------------------      -------------------------|
B|---------------------      -------------------------|
G|-4444---------------- 2x   -------------------------|
D|-4444-4444-6666-2222- Then -4--2-4--2-4--2-4--2-4---|
A|-2222-4444-6666-2222-      -2--0-2--0-2--0-2--0-2---|
E|------2222-4444-0000-      -------------------------|

Gtr.2
e|---------------------      -------------------------|
B|---------------------      -------------------------|
G|--------------------- 2x   -------------------------|
D|--------------------- Then -------------------------|
A|-222-11111-----------      -222222222222222222222---|
E|-----------4444-0000-      -------------------------|

Verse 1:I don't believe...
Gtr.1
e|------------------------------|
B|------------------------------|
G|------------------------------|
D|-2--4-----4-6---2-2-----4-6---|
A|-0--2-----4-6---2-2-----4-6---|
E|----------2-4---0-0-----2-4---|

Gtr.2
e|-------------------------------------------|
B|-------------------------------------------|
G|-------------------------------------------|
D|-------------------------------------------|
A|-222-11111---------------------------------|
E|-----------4444-2222-0000-2222-4444-2222---|


Pre-Chorus 1:And here we go...          (CLEAN GTR.)
e|------------------------------------------------------------------------|
B|------------------------------------------------------------------------|
G|-------------------------------------------4/6----4/6-------------------|
D|-22222-4444-66666--44444---222222--4444---------------2222222--444444---|
A|-22222-4444-66666--44444---222222--4444--2------2-----2222222--444444---|
E|-00000-2222-44444--22222---000000--2222---------------0000000--222222---|

Chorus:March of the dogs...
Gtr.1:
e|---------------------      --------------------------|
B|---------------------      --------------------------|
G|-4444---------------- 2x   -44444-4444---------------|
D|-4444-4444-6666-2222- Then -44444-4444-6666-222222---|
A|-2222-4444-6666-2222-      -22222-1111-6666-222222---|
E|------2222-4444-0000-      ------------4444-000000---|

Gtr.2
e|---------------------      --------------------------|
B|---------------------      --------------------------|
G|--------------------- 2x   -444444-4444-6666---------|
D|--------------------- Then -444444-4444-6666-22222---|
A|-222-11111-----------      -222222-1111-4444-22222---|
E|-----------4444-0000-      ------------------00000---|

Pre-Verse 2:
Gtr.1
e|-------------------------------------------------------------|
B|-------------------------------------------------------------|
G|-------------------------------------------------------------|
D|-6-6-6-6-6-6---4-4-4-4-4-4---2-2-2-2-2-2-2-2-2---4-4-4-4-4---|
A|-6-6-6-6-6-6---4-4-4-4-4-4---2-2-2-2-2-2-2-2-2---4-4-4-4-4---|
E|-4-4-4-4-4-4---2-2-2-2-2-2---0-0-0-0-0-0-0-0-0---2-2-2-2-2---|
   . . . . . .   . . . . . .   . . . . . . . . .   . . . . .

Gtr.2
e|---------------------|
B|---------------------|
G|-4/6b---2/4b---------| I dunno if this is a bass but try to listen
D|--------------6/8b---| so you can here this part well.
A|---------------------|
E|---------------------|

Verse 2:It may be...
Play Gtr.2 Only

Repeat Pre-Chorus:

Repeat Chorus:

Bridge prt.1:Hey,hey,hey...
e|-----------------------|
B|-----------------------|
G|-4444444444444444444---|
D|-xxxxxxxxxxxxxxxxxxx---|
A|-2222222222222222222---|
E|-----------------------|

Bridge prt.2(Solo):
Gtr.1
e|----------------------------|
B|----------------------------|
G|--------------44444---------| 2x
D|-666666-22222-44444-44444---| Then
A|-666666-22222-22222-44444---|
E|-444444-00000-------22222---|

Gtr.2
e|------------------------------------------------|
B|------------------------------------------------|
G|------------------------------------------------| 2x
D|-6--4--1--2-------------------------------------| Then
A|-------------4-2---------2~---2-4-2-1-2-1-2-4---|
E|------------------2/4--2------------------------|

Bridge prt.3
Gtr.1
e|----------------------------|
B|----------------------------|
G|-1212121212--111111111111---| 2x
D|-1212121212--111111111111---|
A|-1010101010---9-9-9-9-9-9---|
E|----------------------------|

Gtr.2
e|-----------------------------------------------
B|-----------------------------------------------
G|-7777--6666--4444--6666--4444-3333-4444-6666---
D|-----------------------------------------------
A|-----------------------------------------------
E|-----------------------------------------------

-------------------------------------------|
-------------------------------------------|
--7777--6666--4444--6666--4444-3-4-3-4-3---|
-------------------------------------------|
-------------------------------------------|
-------------------------------------------|


After Bridge:Another president dead...
Gtr.1
e|----------------------------------------------|
B|----------------------------------------------|
G|----------------------------------------------|
D|-4--2-4--2-4--4-4/6--2-4--4-4/6--2-4--4-4/6---|
A|-2--0-2--0-2--4-4/6--0-2--4-4/6--0-2--4-4/6---|
E|--------------2-2/4-------2-2/4-------2-2/4---|

Gtr.2:
e|----------------------------------------------------------------------------------|
B|----------------------------------------------------------------------------------|
G|----------------------------------------------------------------------------------|
D|----------------------------------------------------------------------------------|
A|-22222222222222222222-11111--------------2222-1111-----------222-1111-------------|
E|-----------------------------4444--0000------------4444-0000----------4444-0000---|

Outro:Lalalala...
e|-------------------      ------|
B|-------------------      ------|
G|-444-----666------- 4x   -4~---|
D|-444-666-666-4444-- Then -4~---|
A|-222-666-444-4444--      -2~---|
E|-----444-----2222--      ------|

End...


March Of The Dogs Lyrics:

Pre-Verse 1:
Ladies and gentlemen of the underclass,
The president of the United States of America,
Is Dead!

Verse 1:
I don't believe in the politics,
Of chosen fools and hypocrites,
Who walk a line that stretched so fine,
Is death or glory had in mind?

Pre-Chorus 1:
And here we go,
I guess the resolution,
No-one knows,
Who'll lead this revolution now,
attention grows,
the way to a conclusion,
It's too late there's no time, (its too late there's no time)
All for none, never was two, three, four

Chorus:
March of the dogs,
to a beat of disillusion
sworn under god,
breeding panic and confusion,
the white flag is down,
send in the clowns,
the carnival of sins is now going to begin,

Verse 2
It may be I'm a pessimist,
but I say we need an exorcist,
the root of all evil standing tall,
Under god and above us all,

Pre-Chorus 2:
And here we go,
I'm getting desperation,
all we know,
Is confusion and frustration,
Ditch your clothes,
no vision of salvation
It's too late there's no time, (it's too late there's no time)
All for none, never was two, three, four

Repeat Chorus:

Bridge:
the carnival of sins is now going to begin,

Hey! Hey! Hey! Hey!
A-one, two, three, four

After Bridge:
Another president dead,
because they blew off his head,
no more kids to be led,
yes to heaven he fled,
was it something he said,
because of who's in his bed,
by who will we be led?
by whose hand will we be fed?
all the lies by the lying liars who said
we'll be fine,
its OK,
hey look mom no head

Outro:
la la la la la la la
(random)
It's OK, it's alright


8. The Jester

Intro
Guitar 2
E|-2-|    E|-2-222-2-222-|
B|-3-|    B|-3-333-3-333-|
G|-4-|x24 G|-4-444-4-444-|(so on...)
D|-4-|    D|-4-444-4-444-|
A|-2-|    A|-2-222-2-222-|
E|---|    E|(strumming is like this)

Verse(same strumming pattern as above)
Guitar 2
E|-2-222-2-222-2-222-2-222-3-333-3-333-------------3-333-3-333-0-000-0-000|
B|-3-333-3-333-2-222-2-222-3-333-3-333-7-777-6-666-3-333-3-333-0-000-0-000|
G|-4-444-4-444-3-333-3-333-4-444-4-444-------------4-444-4-444-0-000-0-000|
D|-4-444-4-444-4-444-4-444-5-555-5-555-7-777-6-666-5-555-5-555-2-222-2-222|
A|-2-222-2-222-4-444-4-444-5-555-5-555-5-555-4-444-5-555-5-555-2-222-2-222|
E|-------------2-222-2-222-3-333-3-333-------------3-333-3-333-0-000-0-000|

(cont.)
E|-2-222-2-222-2------------|
B|-3-333-2-222-3------------|
G|-4-444-3-333-4------------|
D|-4-444-4-444-4------------|
A|-2-222-4-444-2------------|
E|-------2-222--------------|

Guitar 1
E|---------------pick slide-|
B|--------------------------|
G|--------------------------|

Chorus
Both guitars(normal up and down strumming pattern)
E|-------------------------|
B|-------------------------| x2
G|-4-----------7-----------|
D|-4-x16-5-----7-x16-4-----|
A|-2-----5-x16-5-----4-x16-|
E|-------3-----------2-----|

Part after chorus
Guitar 2
E|-2-222-2-222-2-222-2-222-|
B|-3-333-3-333-3-333-3-333-|
G|-4-444-4-444-4-444-4-444-|
D|-4-444-4-444-4-444-4-444-|
A|-2-222-2-222-2-222-2-222-|
E|-------------------------|

Verse
Guitar 2
E|------------------------------------------------------------------------|
B|------------------------------------------------------------------------|
G|-4-4-4-4-4-4-------------------------7-7-7-6-6-6------------------------|
D|-4-4-4-4-4-4-4-4-4-4-4-4-5-5-5-5-5-5-7-7-7-6-6-6-5-5-5-5-5-5-2-2-2-2-2-2|
A|-2-2-2-2-2-2-4-4-4-4-4-4-5-5-5-5-5-5-5-5-5-4-4-4-5-5-5-5-5-5-2-2-2-2-2-2|
E|-------------2-2-2-2-2-2-3-3-3-3-3-3-------------3-3-3-3-3-3-0-0-0-0-0-0|
     PM.......   .........   .........   .........   .........   .........
(cont.)
E|---------------|
B|---------------|
G|-4-4-4-------4-|
D|-4-4-4-4-4-4-4-|
A|-2-2-2-4-4-4-2-|
E|-------2-2-2---|
     PM.......

Chorus x2

La-la-la part after chorus
Both Guitars
E|---------------------|
B|---------------------|x2
G|-4---------7---------|
D|-4-x8-5----7-x8-4----|
A|-2----5-x8-5----4-x8-|
E|------3---------2----|

Bridge(really really fast picking), not sure if palm muted or not.
Guitar 1
E|------------------------------------------------------------------------|
B|------------------------------------------------------------------------|
G|-------------------------2--2--------------------2--2-------------------|
D|-------------------------------5-5-5-4-4-4-2-2-2-------5-5-5-4-4-4-2-2-2|
A|-2-2-2-4-4-4-5-5-5-2-2-2------------------------------------------------|
E|------------------------------------------------------------------------|

(cont.)
E|---------------|
B|---------------|x2
G|---------------|
D|-2-4-5-4-5-4-2-|
A|---------------|
E|---------------|

On second time through, let ring all chords.
Guitar 2
E|---------|
B|---------|
G|-4---7---|
D|-4-5-7-4-|
A|-2-5-5-4-|
E|---3---2-|

Bridge (cont.)
Both guitars
E|-------------------------------------------------------------------|
B|-------------------------------------------------------------------|
G|-4-4--------------------------------------4-4--4-4-----------------|
D|-4-4------5-5-5-5-5-5-5-5-4-4-4-4-4-4-4-4-4-4--4-4-5-5-5-5-5-5-5-5-|
A|-2-2------5-5-5-5-5-5-5-5-4-4-4-4-4-4-4-4-2-2--2-2-5-5-5-5-5-5-5-5-|
E|----------3-3-3-3-3-3-3-3-2-2-2-2-2-2-2-2----------3-3-3-3-3-3-3-3-|

(cont.)
Both guitars
E|-----------------|
B|-----------------|
G|-----------------|
D|-4-4-4-4-4-4-4-4-|
A|-4-4-4-4-4-4-4-4-|
E|-2-2-2-2-2-2-2-2-|

Chorus x2

End riff
Both Guitars
E|-----------------------------------------------|
B|-----------------------------------------------|
G|-4-4-4-4---7-4-4-4-4---7-4-4-4-4---7-----------|
D|-4-4-4-4-5-7-4-4-4-4-5-7-4-4-4-4-5-7-2~--------|
A|-2-2-2-2-5-5-2-2-2-2-5-5-2-2-2-2-5-5-2~let ring|
E|---------3-----------3-----------3---0~--------|

9. With Me

Intro/Verse:

Guitar I:
E|----------------------0~-|--------------------0-------------|
B|-------------------------|----------------------------------|
G|-----------4-------------|-----------4------------4~--------|
D|-2-2-------------2-------|----------------------------------|
A|-------------------------|-2-2----------2-------------------|
E|-------------------------|----------------------------------|

E|----------------------0~-|----------------------------------|
B|-------------------------|----------------------4---5-------|
G|------------4------------|------------4-----------------4~--|
D|-------------------------|----------------------------------| x8
A|-4-4-------------4-------|-0-0------------0-----------------|
E|-------------------------|----------------------------------|

Guitar II:
E|---------|----------|--44-4-44-|-----------|
B|-00-0-00-|--22-2-22-|--55-5-55-|--00-0-00--|
G|-11-1-11-|--44-4-44-|--66-6-66-|--22-2-22--|
D|-22-2-22-|--44-4-44-|--66-6-66-|--22-2-22--|
A|-22-2-22-|--22-2-22-|--44-4-44-|--00-0-00--|
E|-00-0-00-|----------|----------|-----------|

Guitar III:
E|-12~--11~---------------12~----11~-----------------12~---------12~--11~--|
B|-----------14~----12~----------------14~-----12~---------12~-------------|
G|-------------------------------------------------------------------------|
D|-------------------------------------------------------------------------|
A|-------------------------------------------------------------------------|
E|-------------------------------------------------------------------------|


Chorus:

Guitars I and II:
E|------------------------------------------------------------|
B|------------------------------------------------------------|
G|-66666666---------------------------44444444--55555555------|
D|-66666666--77777777-----22222222----44444444--66666666------|
A|-44444444--77777777-----22222222----22222222--33333333------|
E|-----------55555555-----00000000----------------------------|

E|-------------------------------------------------------------------------|
B|-------------------------------------------------------------------------|
G|-66666666-------------------44444444-55555555-66666666-------------------|
D|-66666666-77777777-22222222-44444444-66666666-66666666-77777777:---------|
A|-44444444-77777777-22222222-22222222-33333333-44444444-77777777:---------|
E|----------55555555-00000000----------------------------55555555:---------|

Verse:

Guitar I:
e|----------------------0~-|--------------------0-------------|
B|-------------------------|----------------------------------|
G|-----------4-------------|-----------4------------4~--------|
D|-2----2----------2-------|-2-----2------2-------------------|
A|-------------------------|----------------------------------|
E|-------------------------|----------------------------------|

e|----------------------0~-|--------------------0-------------|
B|-------------------------|----------------------------------|
G|-----------4-------------|-----------4------------4~--------|
D|-2----2----------2-------|----------------------------------|
A|-------------------------|-2-----2------2-------------------|
E|-------------------------|----------------------------------|\
                                                                |
e|----------------------0~-|----------------------------------|----| x4
B|-------------------------|----------------------4---5------------|
G|------------4------------|------------4-----------------4~-------|
D|-------------------------|---------------------------------------|
A|-4-----4---------4-------|-0-----0--------0----------------------|
E|-------------------------|---------------------------------------|


Pre-Chorus:


Guitar II:
e|----------------------0~-|--------------------0-------------|
B|-------------------------|----------------------------------|
G|-----------4-------------|-----------4------------4~--------|
D|-2----2----------2-------|----------------------------------|
A|-------------------------|-2-----2------2-------------------|
E|-------------------------|----------------------------------|

e|----------------------0~-|----------------------------------|
B|-------------------------|----------------------4---5-------|
G|------------4------------|------------4-----------------4~--|
D|-------------------------|----------------------------------|
A|-4-----4---------4-------|-0-----0--------0-----------------|
E|-------------------------|----------------------------------|


Guitar I:
e|----------------------------------------------------|
B|----------------------------------------------------|
G|-66666666----22222222----------------44444444-------|
D|-66666666----22222222----22222222----44444444-------|
A|-44444444----00000000----22222222----22222222-------|
E|-------------------------00000000-------------------|
PM ........    ........    ........    ........

Chorus:


Guitars I and II:
e|------------------------------------------------------------|
B|------------------------------------------------------------|
G|-66666666---------------------------44444444--55555555------|
D|-66666666--77777777-----22222222----44444444--66666666------|
A|-44444444--77777777-----22222222----22222222--33333333------|
E|-----------55555555-----00000000----------------------------|

e|-------------------------------------------------------------------------|
B|-------------------------------------------------------------------------|
G|-66666666-------------------44444444-55555555-66666666-------------------|
D|-66666666-77777777-22222222-44444444-66666666-66666666-77777777:---------|
A|-44444444-77777777-22222222-22222222-33333333-44444444-77777777:---------|
E|----------55555555-00000000----------------------------55555555:---------|


Bridge:

Doesn't matter which guitar plays this:
e|------------|
B|------------|
G|------------|
D|-xx-xx------|
A|-xx-xx------|
E|-xx-xx------|


Guitar I:
e|---------------------------------------------------------------|
B|---------------------------------------------------------------|
G|------------------------44-4-44:---6666666---44444444----------|
D|--77-7-77:---22-2-22:---44-4-44:---6666666---44444444----------|
A|--77-7-77:---22-2-22:---22-2-22:---4444444---22222222----------|
E|--55-5-55:---00-0-00:------------------------------------------|

e|-------------------------------------------------------|
B|-------------------------------------------------------|
G|----------------------44444444---66666666--44444444----|
D|--77777777-22222222---44444444---66666666--44444444----|
A|--77777777-22222222---22222222---44444444--22222222----|
E|--55555555-00000000------------------------------------|

e|---------------------------------------------------------------|
B|---------------------------------------------------------------|
G|------------------------44-4-44:---6666666---44444444----------|
D|--77-7-77:---22-2-22:---44-4-44:---6666666---44444444----------|
A|--77-7-77:---22-2-22:---22-2-22:---4444444---22222222----------|
E|--55-5-55:---00-0-00:------------------------------------------|

e|-------------------------------------------------------|
B|-------------------------------------------------------|
G|----------------------44444444---66666666--44444444----|
D|--77777777-22222222---44444444---66666666--44444444----|
A|--77777777-22222222---22222222---44444444--22222222----|
E|--55555555-00000000------------------------------------|


Guitar II:
e|----------------------------------------------------------------------|
B|----------------------------------------------------------------------|
G|--9-9-9-9-9/8\9-9-9-9-9-9-9-9-9-9-9/8\9-9-9-9/11-8-8-8-8-8-8-8-8-8-8--|
D|----------------------------------------------------------------------|
A|--7-7-7-7-7/6\7-7-7-7-7-7-7-7-7-7-7/6\7-7-7-7/9--6-6-6-6-6-6-6-6-6-6--|
E|----------------------------------------------------------------------|

e|------------------------------------------------|
B|------------------------------------------------|
G|-8888888888--11--13-13-13-13-11/13\11--9--------|
D|------------------------------------------------|x4
A|-6666666666--9---11-11-11-11--9/11\9---7--------|
E|------------------------------------------------|


Pre-Chorus:

Guitar I:
e|----------------------0~-|--------------------0-------------|
B|-------------------------|----------------------------------|
G|-----------4-------------|-----------4------------4~--------|
D|-2----2----------2-------|-2-----2------2-------------------|
A|-------------------------|----------------------------------|
E|-------------------------|----------------------------------|


e|----------------------0~-|--------------------0-------------|
B|-------------------------|----------------------------------|
G|-----------4-------------|-----------4------------4~--------|
D|-2----2----------2-------|----------------------------------|
A|-------------------------|-2-----2------2-------------------|
E|-------------------------|----------------------------------|\
                                                                |
e|----------------------0~-|----------------------------------|----| x4
B|-------------------------|----------------------4---5------------|
G|------------4------------|------------4-----------------4~-------|
D|-------------------------|---------------------------------------|
A|-4-----4---------4-------|-0-----0--------0----------------------|
E|-------------------------|---------------------------------------|

Chorus:

Guitars I and II:
e|------------------------------------------------------------|
B|------------------------------------------------------------|
G|-66666666---------------------------44444444--55555555------|
D|-66666666--77777777-----22222222----44444444--66666666------|
A|-44444444--77777777-----22222222----22222222--33333333------|
E|-----------55555555-----00000000----------------------------|

e|-------------------------------------------------------------------------|
B|-------------------------------------------------------------------------|
G|-66666666-------------------44444444-55555555-66666666-------------------|
D|-66666666-77777777-22222222-44444444-66666666-66666666-77777777-xx-xx----|
A|-44444444-77777777-22222222-22222222-33333333-44444444-77777777-xx-xx----|
E|----------55555555-00000000----------------------------55555555-xx-xx----|

e|------------------------------------------------------------|
B|------------------------------------------------------------|
G|-66666666---------------------------44444444--55555555------|
D|-66666666--77777777-----22222222----44444444--66666666------|
A|-44444444--77777777-----22222222----22222222--33333333------|
E|-----------55555555-----00000000----------------------------|

e|-------------------------------------------------------------------------|
B|-------------------------------------------------------------------------|
G|-66666666-------------------44444444-55555555-66666666-------------------|
D|-66666666-77777777-22222222-44444444-66666666-66666666-77777777----------|
A|-44444444-77777777-22222222-22222222-33333333-44444444-77777777----------|
E|----------55555555-00000000----------------------------55555555----------|

End on:

Guitars I and II:
e|--------|
B|--------|
G|--------|
D|---2~---|
A|---2~---|
E|---0~---|

| :  rest (stop the note/chord from ringing)
| .  palm mute note
| /  slide up
| \  slide down
| h  hammer-on
| p  pull-off
| ~  vibrato/let note ring out
| +  harmonic
| x  Mute note


10. Pull The Curtain

Intro prt.1:
Gtr.1
e|------------------------------------|
B|------------------------------------|
G|------------------------------------|
D|-66666-22222---------666666-22222---|
A|-66666-22222---------666666-22222---|
E|-44444-00000---------444444-00000---|

Gtr.2
e|------------------------------------------------|
B|------------------------------------------------|
G|-44444444444444444444444444444444444444444444---|
D|-xxxxxxxxxxxxxxxxxxxxxxxxxxxxxxxxxxxxxxxxxxxx---|
A|-22222222222222222222222222222222222222222222---|
E|------------------------------------------------|

Intro prt.2:
e|-----------------------------------------------------------------------------------------------|
B|-----------------------------------------------------------------------------------------------|
G|-44-4/6-4-3-4-------------44--9/11-9-8-4-------------44-4/6-4-3-4-------------44-3h4-4-3h4-66--|
D|-xx-x-x-x-x-x-66666-22222-xx--x--x-x-x-x-66666-22222-xx-x-x-x-x-x-66666-2222--xx-x-x-x-x-x-xx-2|
A|-22-2/4-2-1-2-66666-22222-22--7/-9-7-6-2-66666-22222-22-2/4-2-1-2-66666-2222--22-1h2-2-1h2-44-2|
E|--------------44444-00000----------------44444-00000--------------44444-0000------------------0|

Verse:
e|-------------------------|
B|-------------------------|
G|-4~----------------------| 2x
D|-4~---4~----6~--4~--2~---| Then
A|-2~---4~----6~--4~--2~---|
E|------2~----4~--2~--0~---|

e|-14-11--------14-11-9~---|
B|-------12~---------------|
G|-------------------------|
D|-------------------------|
A|-------------------------|
E|-------------------------|


Repeat Intro prt.2

Repeat Verse:

Chorus 1:
e|------------------------------------------------------------------|
B|------------------------------------------------------------------|
G|------------------------------------------------------------------|
D|-22222-44444-66666-44444---22222-44444-66666-4444-2222222222222---|
A|-22222-44444-66666-44444---22222-44444-66666-4444-2222222222222---|
E|-00000-22222-44444-22222---00000-22222-44444-2222-0000000000000---|

Bridge:
Gtr.1
e|--------------------------------------------------------|
B|--------------------------------------------------------|
G|-44444--------------------------------------------------|
D|-44444-66666-22222-4444-5555---66666-44444-2222222222---|
A|-22222-66666-22222-4444-5555---66666-44444-2222222222---|
E|-------44444-00000-2222-3333---44444-22222-0000000000---|

Gtr.2
e|---------------------14------14-11--11------11------11--------------14-11-----------14-11-|
B|-1212121212--12-11-9----12-9-----------12-9----12-9---12--12p11p9h11------12p11p9h11------|
G|------------------------------------------------------------------------------------------|
D|------------------------------------------------------------------------------------------|
A|------------------------------------------------------------------------------------------|
E|------------------------------------------------------------------------------------------|


------------------------------------------14-11--------14\---|
--------------1212-1111--1212-1111---9-12---------9-12-16\---|
-------------------------------------------------------------|
-66666-44444-------------------------------------------------|
-66666-44444-------------------------------------------------|
-44444-22222-------------------------------------------------|

e|--------------------------|
B|--------------------------|
G|-44444--------------------|
D|-44444-66666-2222222222---|
A|-22222-66666-2222222222---|
E|-------44444-0000000000---|
   ..... ..... ..........

Chorus 2:
e|-----------------------------------------|
B|-----------------------------------------|
G|-44444-33333-----------------------------| 2x
D|-44444-33333-66666-44444-2222222222222---|
A|-22222-11111-66666-44444-2222222222222---|
E|-------------44444-22222-0000000000000---|

e|--------------------------      ------|
B|--------------------------      ------|
G|-------------44444-------- 4x   ------|
D|-66666-22222-44444-44444-- Then -6~---|
A|-66666-22222-22222-44444--      -6~---|
E|-44444-00000-------22222--      -4~---|


11. King of Contradiction

Intro:

E|-------------------------------------|
B|-------------------------------------|
G|-0~----------------------------------|
D|-0~--------------/-------------------|
A|-0~--------------/-------------------|
E|-0~--------------/-------------------|

Verse:

E|-------------------------------------|
B|-------------------------------------|
G|---------8>-----7>-------------------|  X4
D|--5>-----8>-----7>-------------------|
A|--5>-----6>-----5>-------------------|
E|--3>---------------------------------|

Chorus:

E|-------------------------------------|
B|-------------------------------------|
G|--8>---------------------------------|
D|--8>-----8>-----10>----12>-----------| X3
A|--6>-----8>-----10>----12>-----------|
E|---------6>-----8>-----10>-----------|

E|-------------------------------------|
B|-------------------------------------|
G|--8>------------7>-------------------|
D|--8>-----8>-----7>-------------------| Play this after you play the part
A|--6>-----8>-----5>-------------------| above 3 times.
E|---------6>--------------------------|

*Stevo's Drum solo!*
*Play Verse*

Chorus:

E|-------------------------------------|
B|-------------------------------------|
G|--8>---------------------------------|
D|--8>-----8>-----10>----12>-----------| X3
A|--6>-----8>-----10>----12>-----------|
E|---------6>-----8>-----10>-----------|

Now we enter the bridge:

E|--------------------------------------------------------------|
B|--------------------------------------------------------------|
G|--8>------------7>-----8>---------------10>-----9>------8>----|
D|--8>-----8>-----7>-----8>------8>-------10>-----9>------8>----|
A|--6>-----8>-----5>-----6>------8>-------8>------7>------6>----|
E|---------6>--------------------6>-----------------------------|

Outro/Bridge part 2:

E|-----------------------------------------|
B|-----------------------------------------|
G|----------5>------8>---------------------|
D|--5>------5>------8>---------------------|
A|--5>------3>------6>---------------------|
E|--3>-------------------------------------|
    ^
 optional
 palm mute
 on this G

End:

E|--------------------------------------------|
B|--------------------------------------------|
G|--------------------------------------------|
D|--5--5--5--5--------------------------------|
A|--5--5--5--5--------------------------------|
E|--3--3--3--3--------------------------------|


12. Best of Me

INTRO [clean]

   G               D             Em        D       C       D
e|------------------------------------------------------------------||
B|------------------------------------------------------------------||
G|-7-7-7-7-7-7-7-7-7-7-7-7-7-7-7-7-7-7-7-7-7-7-7-7-5-5-5-5-7-7-7-7--||
D|-5-5-4-5-5-5-4-5-5-5-4-5-5-5-4-5-5-5-4-5-5-5-4-5-5-5-5-5-7-7-7-7--||
A|------------------------------------------------------------------|| once
E|------------------------------------------------------------------||

VERSE 1 [clean]

   G               D               Em      D       C       D
e|------------------------------------------------------------------||
B|------------------------------------------------------------------||
G|-7-7-7-7-7-7-7-7-7-7-7-7-7-7-7-7-7-7-7-7-7-7-7-7-5-5-5-5-7-7-7-7--||
D|-5-5-4-5-5-5-4-5-5-5-4-5-5-5-4-5-5-5-4-5-5-5-4-5-5-5-5-5-7-7-7-7--||
A|------------------------------------------------------------------|| twice
E|------------------------------------------------------------------||

   G               D               Em              C       D
e|------------------------------------------------------------------||
B|------------------------------------------------------------------||
G|-7-7-7-7-7-7-7-7-7-7-7-7-7-7-7-7-9-9-9-9-9-9-9-9-5-5-5-5-7-7-7-7--||
D|-5-5-5-5-5-5-5-5-4-4-4-4-4-4-4-4-9-9-9-9-9-9-9-9-5-5-5-5-7-7-7-7--||
A|------------------------------------------------------------------|| twice
E|------------------------------------------------------------------||

CHORUS 1 [chorded]

   G        Em        C    D
e|-3--------0---------0----2--||
B|-3--------0---------1----3--||
G|-0--------0---------0----2--||
D|-0--------2---------2----0--||
A|-2--------2---------3-------||
E|-3--------0-----------------||

RIFF TO VERSE 2 [light distorted]

   G
e|-3---3---3---3---3---3---3---3----||
B|---3---3---3---3---3---3---3---3--||
G|----------------------------------||
D|----------------------------------||
A|----------------------------------||
E|----------------------------------||

   G               D               Em      D       C       D
e|------------------------------------------------------------------||
B|------------------------------------------------------------------||
G|-7-7-7-7-7-7-7-7-7-7-7-7-7-7-7-7-9-9-9-9-7-7-7-7-5-5-5-5-7-7-7-7--||
D|-5-5-5-5-5-5-5-5-4-4-4-4-4-4-4-4-9-9-9-9-7-7-7-7-5-5-5-5-7-7-7-7--||
A|------------------------------------------------------------------|| once
E|------------------------------------------------------------------||

VERSE 2 [is the same as VERSE 1 only light distorted]

CHORUS 2 [power-chorded, distorted]

e|------------------------------------------------------------------||
B|------------------------------------------------------------------||
G|------------------------------------------------------------------||
D|------------------------------------------------------------------||
A|-5-5-5-5-5-5-5-5-5-5-5-5-5-5-5-5-2-2-2-2-2-2-2-2-2-2-2-2-2-2-2-2--||
E|-3-3-3-3-3-3-3-3-3-3-3-3-3-3-3-3-0-0-0-0-0-0-0-0-0-0-0-0-0-0-0-0--||

e|----------------------------------||
B|----------------------------------||
G|----------------------------------||
D|-5-5-5-5-5-5-5-5-7-7-7-7-7-7-7-7--|| the whole thing twice
A|-3-3-3-3-3-3-3-3-5-5-5-5-5-5-5-5--||
E|----------------------------------||

SOLO [Rhythm* distorted, Lead light distorted]

   G
e|-3---3---3---3---3---3---3-3-3-3--||
B|---3---3---3---3---3---3---3-3-3--||
G|----------------------------------|| *play rhythm with power chords
D|----------------------------------||
A|----------------------------------||
E|----------------------------------||

   Em               C               G               D
e|--------------------------------------7-------7-------10-----10------||
B|-8-8-7-8--10-10-7-8-8-7-8--10-10----------8-------7-8----7-8----7-8--||
G|-7-7-7-7---7--7---7-7-7-7---7--7-/7-7---7---7---7--------------------||
D|---------------------------------------------------------------------||
A|---------------------------------------------------------------------||
E|---------------------------------------------------------------------||

   Em               C               G       D/F#    Em
e|--------------------------------------7-------7-------7-------7------||
B|-8-8-7-8--10-10-7-8-8-7-8--10-10----------7-------8-8-----8----------||
G|-7-7-7-7---7--7---7-7-7-7---7--7-/7-7---7---7---7-------9---9---9----||
D|---------------------------------------------------------------------||
A|---------------------------------------------------------------------||
E|---------------------------------------------------------------------||

   C                 D                     D~
e|-----10-----10----------10------10---10-10~--||
B|-8-7----7-8----7-8-10-8----10-8----8----10~--||
G|---------------------------------------------||
D|---------------------------------------------||
A|---------------------------------------------||
E|---------------------------------------------||


FINAL CHORUS [this one is originally chorded
              but to make it sound pianoed i like to play it like this]

   G                Em               C        D            G~
e|---------------------------------------------------------3--||
B|---------------------------------------------------------3--||
G|---------------------------------------------------------0--||
D|-0-0-0-0-0-0-0-0--5-5-5-5-5-5-5-5--5-5-5-5--4-4-4-4------0--||
A|-2-2-2-2-2-2-2-2--7-7-7-7-7-7-7-7--7-7-7-7--5-5-5-5-[x2]-2--||
E|-3-3-3-3-3-3-3-3--7-7-7-7-7-7-7-7--8-8-8-8--5-5-5-5------3--||

OUTRO 

e|-10--------||
B|----8-7-8--|| over and over fading out, though
G|-----------|| it sounds more like it light distorted
D|-----------|| and tapped like below
A|-----------||
E|-----------||

e|-10p3p2h3--||
B|-----------||
G|-----------||
D|-----------||
A|-----------||
E|-----------||


13. Confusion & Frustration in Modern Times

Intro prt.1:
e|-----------------------------------------------------------|
B|-----------------------------------------------------------|
G|--------99999-44444----------------99999-44444-------------|
D|-666666-99999-44444-44444---666666-99999-44444-44444--2~---|
A|-666666-77777-22222-44444---666666-77777-22222-44444--2~---|
E|-444444-------------22222---444444-------------22222--0~---|

Intro prt.2
e|-------------------------------------------------|
B|-------------------------------------------------|
G|-------------------------------------------------|
D|-44444-22222-66666-22222---4xxxx-22222-6-xxxxx---|
A|-22222-22222-66666-22222---2xxxx-22222-6-xxxxx---|
E|-------00000-44444-00000----xxxx-00000-4-xxxxx---|
                                         .

Verse 1:
e|---------------------------------------------------------------------------------------------|
B|---------------------------------------------------------------------------------------------|
G|---------------------------------------------------------------------------------------------|
D|-44444-66666-99999---44444-66666-99999---6~--6~--9~---44444-4444---6~--6~---9~---4444-4444---|
A|-22222-66666-77777---22222-66666-77777---6~--6~--7~---22222-4444---6~--6~---7~---2222-4444---|
E|-------44444---------------44444---------4~--4~-------------2222---4~--4~-------------2222---|

e|-------------------------------------|
B|-------------------------------------|
G|-------------------------------------|
D|-66666-22222-44444-44444---66666-2---|
A|-66666-22222-22222-44444---66666-2---|
E|-44444-00000-------22222---44444-0---|
    ....  ....  ....  ....    .... .

Chorus 1:
e|-------------------------------------------------|
B|-------------------------------------------------|
G|-44444---------------------44444-----------------|
D|-44444-44444-66666-22222---44444-44444-66666-2---|
A|-22222-44444-66666-22222---22222-44444-66666-2---|
E|-------22222-44444-00000---------22222-44444-0---|
                                               .

Pre-Verse 2:Play Intro prt.2

Verse 2:Play Verse 1

Chorus 2
e|-----------------------------------------------------|
B|-----------------------------------------------------|
G|-44444---------------------44444---------------------| 2x
D|-44444-44444-66666-22222---44444-44444-66666-22222---|
A|-22222-44444-66666-22222---22222-44444-66666-22222---|
E|-------22222-44444-00000---------22222-44444-00000---|
                                               

Bridge prt.1:
e|-----------------------------------------------------------------------------------
B|-----------------------------------------------------------------------------------
G|-----------------------------------------------------------------------------------
D|-6~--6~--2~----6~--6~--2~---6~--6~--2~--44444---4444-8---444444-2222-66666-44444---
A|-6~--6~--2~----6~--6~--2~---6~--6~--2~--44444---2222-6---222222-2222-66666-44444---
E|-4~--4~--0~----4~--4~--0~---4~--4~--0~--22222-------------------0000-44444-22222---
                                          xxxxx
-------------------------------------|
-------------------------------------|
-------------------------------------|
-44444-22222--6~--66/8~--88/9~--2~---|
-22222-22222--x---xx-x---xx-x---2~---|
-------00000--4~--44/6~--66/7~--0~---|

Bridge prt.2:Play Chorus 2

Last prt. of Bridge:
Gtr.1
e|--------------------------------|
B|--------------------------------|
G|-4444444444444444444444444444---|
D|-4444444444444444444444444444---|
A|-2222222222222222222222222222---|
E|--------------------------------|

Gtr.2
e|--------------------------------|
B|--------------------------------|
G|-1111111111111111111111111111---|
D|--x-x-x-x-x-x-x-x-x-x-x-x-x-x---|
A|--9-9-9-9-9-9-9-9-9-9-9-9-9-9---|
E|--------------------------------|

Repeat Chorus 2:

Outro:
Gtr.1
e|---------------------------------------------------------|
B|---------------------------------------------------------|
G|-16161616161616161616161616161616161616161616--------4---|
D|-xxxxxxxxxxxxxxxxxxxxxxxxxxxxxxxxxxxxxxxxxxxx-xxxxx--4---|
A|-14141414141414141414141414141414141414141414-xxxxx--2---|
E|----------------------------------------------xxxxx------|
                                                       .

Gtr.2 Enters:
e|-----------------------------------------------------------|
B|-----------------------------------------------------------|
G|-------------11-11--9-9--------------11-11--9-9--------4---|
D|-9-9--11-11---------------9-9--11-11-------------xxxxx-4---|
A|-------------------------------------------------xxxxx-2---|
E|-------------------------------------------------xxxxx-----|

14. So Long Goodbye

Tune everything a half step down.

Eb Ab Db Gb Bb Eb

Chords Used:

      G   Cadd9   D    Em    C 
eb|---3----3------2----0-------|
Bb|---3----3------3----0-----1-|
Gb|---0----0------2----0-------|
Db|---0----2------0----2-----2-|
Ab|---2----3-----------2-----3-|
Eb|---3----------------0-------|


G  Cadd9  D  G
G  Cadd9  D  G

G              Cadd9   D         G
As time passes by, direction unknown 
G              Cadd9   D             G
You've left us now but we're not alone 
G          Cadd9       D         G
Before you know it your cups overflown 
G            Cadd9      D              G
You measured no one that I've ever known 


Cadd9        D     G 
And it's quite alright 
Cadd9   D           Em
And goodbye for now 
          C
Just look up to the stars
    D
And believe who you are
      Em         D    Cadd9 
Cause it's quite alright
Cadd9            D   G 
And so long, goodbye 


G  Cadd9  D  G
G  Cadd9  D  G


G         Cadd9         D            G
We always knew that it'd come to this 
G          Cadd9           D             G
It's times like this i forget what i miss 
G          Cadd9       D       G
Matters of art are hard to address
G               Cadd9        D       G
Especially when yours is full of emptiness 

Cadd9        D     G 
And it's quite alright 
Cadd9   D           Em
And goodbye for now 
          C
Just look up to the stars
    D
And believe who you are
     Em         D    Cadd9 
Cause it's quite alright
Cadd9            D   G 
And so long, goodbye 


Em  C   G   D-G
Em  C   G
Em  C   D   


G              Cadd9   D         G
As time passes by, direction unknown 
G              Cadd9   D             G
You've left us now but we're not alone 
G          Cadd9       D         G
Before you know it your cups overflown 
G            Cadd9      D              G
You measured no one that I've ever known 


Cadd9        D     G 
And it's quite alright 
Cadd9   D           Em
And goodbye for now 
          C
Just look up to the stars
    D
And believe who you are
      Em         D    Cadd9
Cause it's quite alright
Cadd9            D   G 
And so long, goodbye 

15. No Apologies [Bonus Track]

Intro:

E|---------------------------------------------|
B|---------------------------------------------|
G|--7-777777777777--77--7777777777777----------|
D|--7-777777777777--77--7777777777777----------|
A|--5-555555555555--55--5555555555555----------|
E|---------------------------------------------|
      ************      *************
        Gradually Release Palm Mute

E|---------------------------------------------|
B|---------------------------------------------|
G|--777----------------------------------------|
D|--777-----------------777--55555555----------| X2
A|--555-777--55555555---777--55555555----------|
E|------555--33333333---555--33333333----------|


Verse:

E|---------------------------------------------|
B|---------------------------------------------|
G|--77777777-----------------------------------|
D|--77777777--77777777--99999999--55555555-----|
A|--55555555--77777777--99999999--55555555-----|
E|------------55555555--77777777--33333333-----|
    ********  ********  ********  ********

E|----------------------------------------------|
B|----------------------------------------------|
G|--77777777------------------------------------|
D|--77777777--77777777--99999999--5555-7777-----| On the second time
A|--55555555--77777777--99999999--5555-7777-----|
E|------------55555555--77777777--3333-5555-----|
    ********  ********  ********

Pre-Chorus:

E|---------------------------------------------|
B|---------------------------------------------|
G|----------------------77777777---------------|
D|--99999999--55555555--77777777--77777777-----|
A|--99999999--55555555--55555555--77777777-----|
E|--77777777--33333333------------55555555-----|

E|-----------------------------------------------|
B|-----------------------------------------------|
G|----------------------77777777-----------------|
D|--99999999--55555555--77777777--7-7777777------|
A|--99999999--55555555--55555555--7-7777777------|
E|--77777777--33333333------------5-5555555------|
                                    *******
Chorus:

E|---------------------------------------------|
B|---------------------------------------------|
G|--77777777-----------------------------------|
D|--77777777--77777777--99999999--55555555-----|
A|--55555555--77777777--99999999--55555555-----|
E|------------55555555--77777777--33333333-----|

E|---------------------------------------------|
B|---------------------------------------------|
G|--77777777-----------------------------------|
D|--77777777--77777777--99999999--5555-7777----|
A|--55555555--77777777--99999999--5555-7777----|
E|------------55555555--77777777--3333-5555----|

Interluge:

E|---------------------------------------------|
B|---------------------------------------------|
G|--777----------------------------------------|
D|--777------55555555---777--55555555----------| X2
A|--555-777--55555555---777--55555555----------|
E|------555--33333333---555--33333333----------|

*Play Verse*
*Play Pre Chorus*
*Play Chorus*

Post Chorus:

E|----------------------------------------------|
B|----------------------------------------------|
G|--77777777--77777777--------------------------|
D|--77777777--77777777--99999999--5555-7777-----|
A|--55555555--77777777--99999999--5555-7777-----|
E|------------55555555--77777777--3333-5555-----|

E|----------------------------------------------|
B|----------------------------------------------|
G|--77777777--77777777--------------------------|
D|--77777777--77777777--99999999--5555-7777-----|
A|--55555555--77777777--99999999--5555-7777-----|
E|------------55555555--77777777--3333-5555-----|

Starting here there are noticeably two guitars. The rhthym for the solo is the same as 
chorus. Heres the solo and bridge:

Solo:
(I'm not 100% sure. give me some suggestions)
E|---------------------------------------------|
B|----------------------------------8--7-------|
G|----------------------------7--8-------9-7---| X2
D|-------4h5p4--------------77-77-77-77--------|
A|--5-55---------------------------------------|
E|-------------5-5-00-44-55--------------------|

Bridge:

Lead:
E|---------------------------------------------|
B|---------------------------------------------|
G|-7~------------------------------------------|
D|---------------------------------------------|
A|---------------------------------------------|
E|---------------------------------------------|

Rhthym:

E|---------------------------------------------|
B|---------------------------------------------|
G|---------------------------------------------|
D|-7~------------------------------------------|
A|-7~------------------------------------------|
E|-5~------------------------------------------|

***********************************************

Lead:

E|---------------------------------------------|
B|---------------------------------------------|
G|--7-77-77-7-7--------------------------------|
D|--x-xx-xx-x-x--------------------------------| Keep repeating
A|--5-55-55-5-5--------------------------------|
E|---------------------------------------------|

Rhythm:
E|------------%%%------------------------------|
B|------------%%%------------------------------|
G|-7-77-7-77--%%%------------------------------| X3
D|-7-77-7-77--%%%----5-55-5-7-77-7-------------|
A|-5-55-5-55--%%%----5-55-5-7-77-7-------------|
E|------------%%%----3-33-3-5-55-5-------------|

E|---------------------------------------------|
B|---------------------------------------------|
G|--7-777777777--------------------------------|
D|--7-777777777-5555555555-7777777777----------|
A|--5-555555555-5555555555-7777777777----------|
E|--------------3333333333-5555555555----------|
      ********* ********** **********

E|---------------------------------------------|
B|---------------------------------------------|
G|--7-777777777777--77--7777777777777----------|
D|--7-777777777777--77--7777777777777----------|
A|--5-555555555555--55--5555555555555----------|
E|---------------------------------------------|
      ************      *************
        Gradually Release Palm Mute

*Play Chorus*
*Play Post Chorus*

End:

E|---------------------------------------------|
B|---------------------------------------------|
G|--7-777777777777--77--7777777777777-7--------|
D|--7-777777777777--77--7777777777777-7--------|
A|--5-555555555555--55--5555555555555-5--------|
E|---------------------------------------------|
      ************      *************
        Gradually Release Palm Mute


that's it dont forget to rate and comment!

Gaz    

Added On December 16th, 2013

SHARE

Comments

blog comments powered by Disqus

ADVERTISEMENT