Sum 41 Tabs

Underclass Hero

8 versions

TAB

            Intro 
GUITAR 1
|------------------------------------------------------------------|
|------------------------------------------------------------------|
|------------------------------------------------------------------|
|--------6-7-6---------------6-7-6------------6-7-6----------------|
|----7-------------------7-----------------7------------7----9-----|
|-00---------------77-----------------55-------------55---77-------|

Then it guitar 1 keeps doing the same and guitar 2 does:

GUITAR 2
|----------------------------------------------------|
|----------------------------------------------------|
|-9-9-X-X-X-X----------------------------------------|
|-9-9-X-X-X-X---9-9-X-X-X-X--7-7-X-X-X-X---7-7-X-9---|
|-7-7-X-X-X-X---9-9-X-X-X-X--7-7-X-X-X-X---7-7-X-9---|
|---------------7-7-X-X-X-X--5-5-X-X-X-X---5-5-X-7---|

Verse
GUITAR 1
|-----------------------------------------------------------|
|-----------------------------------------------------------|
|-----------------------------------------------------------|
|------6---------------6-------------6----------------------|
|----7---7-----------7---7---------7---7---------7----9-----|
|-00-------------77-----------55-------------55---77--------|

the next part (PRE CHORUS) i leave it to your imagination cuz i donno if
it sounds good like this:

|-----------------------------------------------------------|
|-----------------------------------------------------------|
|-9-9-9-----------------------------------------------------|
|-9-9-9----9-9-9-9-9-9-9-9-----7-7-7-7-7/11-9-9-9-9-9-9-9-9-|
|-7-7-7----9-9-9-9-9-9-9-9-----7-7-7-7-7/11-9-9-9-9-9-9-9-9-|
|----------7-7-7-7-7-7-7-7-----5-5-5-5-5/9--7-7-7-7-7-7-7-7-|

and the chorus:

|-----------------------------------------|
|-----------------------------------------|
|--------------9--------------------------|
|-7------------9-(8 times)-9--------------|
|-7-(8 times)--7-----------9-(16 times)---|
|-5------------------------7--------------|

and thats bassically the song 

im diegokobe :)    

Added On December 16th, 2013

SHARE

Comments

blog comments powered by Disqus