Sum 41 Tabs

Underclass Hero

8 versions

TAB

            Song:Underclass Hero
Album:Underclass Hero
Artist:Sum 41
Date Tabbed:April,2007
Guitar Tabber:Ryan Manongdo/17/m/Philippines
              no_falter0x@yahoo.com(Friendster&YM)

For your comments,questions or suggestions,just Post a Comment or PM me.

Salamat ng marami:-)

Gtr.Legends:
. - palm muting
x - dead string
~ - let it ring
h - hammer-on
p - pull-off
/ - slide
b - bend

Gtr.Tuning:Standard(Normal)

Intro prt.1:
e|----------------------------------------------|
B|----------------------------------------------|
G|----------------------------------------------|  2x
D|------7-6---------7-6---------7-6-------------|
A|----7-----------7--------00-7-------00-00-2---|
E|-00---------77--------------------------------|
   ..         ..           ..         ..        

Intro prt.2:
Gtr.1
e|----------------------------------------|
B|----------------------------------------|
G|-99-------------------------------------| 2x
D|-99-6h7p6--99-6h7p6--77-6h7p6--77-7-9---|
A|-77--------99--------77--------77-7-9---|
E|-----------77--------55--------55-5-7---|
   ..        ..        ..        .. 

Gtr.2
e|-------------------------------------|
B|-------------------------------------|
G|-99-9999--------------9999-----------| 2x
D|-99-xxxx--99-9999--77-xxxx--77-7-9---|
A|-77-7777--99-xxxx--77-7777--77-7-9---|
E|----------77-7777--55-------55-5-7---|
   ..       ..       ..       ..   

Verse:
e|----------------------------------|
B|----------------------------------|
G|------9999999999999999999999999---|
D|-222--xxxxxxxxxxxxxxxxxxxxxxxxx---|
A|-222--7777777777777777777777777---|
E|-000------------------------------|

Pre-Chorus:
Gtr.1
e|------------------------|
B|------------------------|
G|-------4444-9999--------| 2x
D|-22222-4444-9999-7777---|
A|-22222-2222-4444-7777---|
E|-00000-----------5555---|

Gtr.2
e|-------------------------------------|
B|-------------------------------------|
G|-999999999999999999999999999999999---|
D|-xxxxxxxxxxxxxxxxxxxxxxxxxxxxxxxxx---|
A|-777777777777777777777777777777777---|
E|-------------------------------------|

Chorus:
e|------------------|
B|------------------|
G|-2222------4444---| 4x
D|-2222-2222-4444---|
A|-0000-2222-2222---|
E|------0000--------|

Pre-Verse 2:
e|----------------------------------------|
B|----------------------------------------|
G|-99-------------------------------------| 2x
D|-99-6h7p6--99-6h7p6--77-6h7p6--77-7-9---|
A|-77--------99--------77--------77-7-9---|
E|-----------77--------55--------55-5-7---|
   ..        ..        ..        ..

Verse 2:
Play Verse 1 w/ Jet Effect

Repeat Pre-Chorus:

Repeat Chorus:

Bridge prt.1
e|--------------------------------|
B|--------------------------------|
G|-99999999--999999--9999999999---|
D|-xxxxxxxx--xxxxxx--xxxxxxxxxx---|
A|-77777777--777777--7777777777---|
E|--------------------------------|

Bridge prt.2(Solo):
Gtr.1:Play Chorus

Gtr.2
e|----------------------------5---------|
B|--------------------------4---4-5-7---|
G|--------------------------------------| 2x
D|-22-2-4-2---2-4-6-4-4p2-4-------------|
A|----------2---------------------------|
E|--------------------------------------|

e|---5---5------------------------------------------------------------------|
B|-5---5---5~~-44-4-5-4---5b-4b---------------------------------------------|
G|----------------------4------------------------------------2-1-1h2-1------|
D|--------------------------------22-2-4-2---2-4-6--4-2-4--2-----------2~---|
A|---------------------------------------------------------------------2~---|
E|---------------------------------------------------------------------0~---|

Repeat Intro prt.1

Repeat Chorus:

Repeat Intro prt.2:

Lst Chords:
e|-------|
B|-------|
G|-------|
D|-2-2---|
A|-2-2---|
E|-0-0---|
   . .

End...    

Added On December 16th, 2013

SHARE

Comments

blog comments powered by Disqus