Sum 41 Tabs

Walking Disaster

6 versions

TAB

            -------------------------------------------------------------------------------
			     Sum 41 - Walking Disaster
-------------------------------------------------------------------------------
Tabbed by: Cocolapin
Email: cocolapin_@hotmail.com
Tuning: Standard
Album: Underclass Hero

Send me an email for any correction.

Enjoy it !!! :D
-------------------------------------------------------------------------------
 
 Intro
 

 Guitar 1 (Lead)


e|--------------------------------------------------------------|
B|-12-12-12-12-12-12-12-12-12-12-12-12-12-12-12-12-12-12-12-12--|
G|-x--x--x--x--x--x--x--x--x--x--x--x--x--x--x--x--x--x--x--x---|
D|-9--9--9--9--9--9--9--9--9--9--9--9--9--9--9--9--9--9--9--9---| (2x)
A|--------------------------------------------------------------|
E|--------------------------------------------------------------|


 Guitar 3 (Extra)


e|--------------------------------------------------------11----|
B|-----------------------------------------------------------12-|
G|--------------------------------------------------------------|
D|--------------------------------------------------------------|
A|--------------------------------------------------------------|
E|--------------------------------------------------------------|

e|-------------------------11-----------------------------11----|
B|----------------------------12----------------------------12--|
G|--------------------------------------------------------------|
D|--------------------------------------------------------------| (1x)
A|--------------------------------------------------------------|
E|--------------------------------------------------------------|

 
 Verse Part 1 (I haven't been home for a while...)


 Guitar 1 (Lead)


e|--------------------------------------------------------------|
B|-12-12-12-12-12-12-12-12-12-12-12-12-12-12-12-12-12-12-12-12--|
G|-x--x--x--x--x--x--x--x--x--x--x--x--x--x--x--x--x--x--x--x---|
D|-9--9--9--9--9--9--9--9--9--9--9--9--9--9--9--9--9--9--9--9---| (8x)
A|--------------------------------------------------------------|
E|--------------------------------------------------------------|


 Guitar 3 (extra)


e|-------------------------11-----------------------------11----|
B|----------------------------12----------------------------12--|
G|--------------------------------------------------------------|
D|--------------------------------------------------------------| (8x)
A|--------------------------------------------------------------|
E|--------------------------------------------------------------|
 
 Guitar 2 (Rythm)

e|--------------------------------------------------------------------|
B|-4-4-4-4-4-4-4-4----------------------------------------------------|
G|-4-4-4-4-4-4-4-4--3-3-3-3-3-3-3-3--4-4-4-4-4-4-4-4--1-1-1-1-1-1-1-1-|
D|-4-4-4-4-4-4-4-4--4-4-4-4-4-4-4-4--6-6-6-6-6-6-6-6--2-2-2-2-2-2-2-2-| (2x)
A|-2-2-2-2-2-2-2-2--4-4-4-4-4-4-4-4--6-6-6-6-6-6-6-6--2-2-2-2-2-2-2-2-|
E|------------------2-2-2-2-2-2-2-2--4-4-4-4-4-4-4-4--0-0-0-0-0-0-0-0-|


Verse Part 2 (Never know what I've become...)


 Guitar 1 (Lead)


e|--------------------------------------------------------------|
B|-12-12-12-12-12-12-12-12-12-12-12-12-12-12-12-12-12-12-12-12--|
G|-x--x--x--x--x--x--x--x--x--x--x--x--x--x--x--x--x--x--x--x---|
D|-9--9--9--9--9--9--9--9--9--9--9--9--9--9--9--9--9--9--9--9---| (8x)
A|--------------------------------------------------------------|
E|--------------------------------------------------------------|


 Guitar 2 (Rythm)


e|--------------------------------------------------------------------|
B|-----------------------------------4-4-4-4-4-4-4-4------------------|
G|-4-4-4-4-4-4-4-4--1-1-1-1-1-1-1-1--4-4-4-4-4-4-4-4--3-3-3-3-3-3-3-3-|
D|-6-6-6-6-6-6-6-6--2-2-2-2-2-2-2-2--4-4-4-4-4-4-4-4--4-4-4-4-4-4-4-4-| (2x)
A|-6-6-6-6-6-6-6-6--2-2-2-2-2-2-2-2--2-2-2-2-2-2-2-2--4-4-4-4-4-4-4-4-|
E|-4-4-4-4-4-4-4-4--0-0-0-0-0-0-0-0-------------------2-2-2-2-2-2-2-2-|


 Interlude (As I fall...)

 
 Guitar 2 (Rythm)

e|----------------------------------------------------|
B|----------------------------------------------------|
G|----------------------------------------------------|
D|-6~-4~-2~-------------------------------------------|
A|-6~-4~-2~-------------------------------------------|
E|-4~-2~-0~-------------------------------------------|

 
 Guitar 1 (lead)

e|---------12*--------------------------------------------------------|
B|--------------------------------------------------------------------|
G|--------------------------------------------------------------------|
D|--------------------------------------------------------------------|
A|--------------------------------------------------------------------|
E|--------------------------------------------------------------------|


 Pre-Verse


 Guitar 1 (lead)
 
e|-------------------------------------------------------------------------|
B|-------------------------------------------------------------------------|
G|-4---/-11-\---8-\---4---/-11-\---8-\---4---/-11-\---8-\---4---/-11-\---8-|
D|-x--/--x---\--x--\--x--/--x---\--x--\--x--/--x---\--x--\--x--/--x---\--x-|
A|-2-/---9----\-6---\-2-/---9----\-6---\-2-/---9----\-6---\-2-/---9----\-6-|
E|-------------------------------------------------------------------------|

e|------------------------------------------------------|
B|------------------------------------------------------|
G|-11-11-11-11-11-11-11-11--13-13-13-13-13-13-13-13-----|
D|-x--x--x--x--x--x--x--x---x--x--x--x--x--x--x--x------|
A|-9--9--9--9--9--9--9--9---11-11-11-11-11-11-11-11-----|
E|------------------------------------------------------|

e|------------------------------------------------------|
B|------------------------------------------------------|
G|-15-15-15-15-15-15-15-15--16-16-16-16-16-16-16-16-\---|
D|-x--x--x--x--x--x--x--x---x--x--x--x--x--x--x--x---\--|
A|-13-13-13-13-13-13-13-13--14-14-14-14-14-14-14-14---\-|
E|------------------------------------------------------|


 Guitar 2 (rythm)


e|--------------------------------------------------------------------|
B|--------------------------------------------------------------------|
G|-4-4-4-4-4-4-4-4----------------------------------------------------|
D|-4-4-4-4-4-4-4-4--6-6-6-6-6-6-6-6--4-4-4-4-4-4-4-4--2-2-2-2-2-2-2-2-| (1x)
A|-2-2-2-2-2-2-2-2--6-6-6-6-6-6-6-6--4-4-4-4-4-4-4-4--2-2-2-2-2-2-2-2-|
E|------------------4-4-4-4-4-4-4-4--2-2-2-2-2-2-2-2--0-0-0-0-0-0-0-0-|


 Verse

 
 Guitar 1 (lead)

e|-----------------------------------------------------------------|
B|-----------------------------------------------------------------|
G|-4-4-4-4-4-4-4-4-4-4-4-4-4-4-4-4-4-4-4-4-4-4-4-4-4-4-4-4-4-4-4-4-|
D|-x-x-x-x-x-x-x-x-x-x-x-x-x-x-x-x-x-x-x-x-x-x-x-x-x-x-x-x-x-x-x-x-| (2x)
A|-2-2-2-2-2-2-2-2-2-2-2-2-2-2-2-2-2-2-2-2-2-2-2-2-2-2-2-2-2-2-2-2-|
E|-----------------------------------------------------------------|

Then (At the dead-end I begin...)

e|-----------------------------------------------------------------|
B|-----------------------------------------------------------------|
G|-4-4-4-4-4-4-4-4-4-4-4-4-4-4-4-4-4-4-4-4-4-4-4-4-4-4-4-4-4-4-4-4-|
D|-x-x-x-x-x-x-x-x-x-x-x-x-x-x-x-x-x-x-x-x-x-x-x-x-x-x-x-x-x-x-x-x-| (4x)
A|-2-2-2-2-2-2-2-2-2-2-2-2-2-2-2-2-2-2-2-2-2-2-2-2-2-2-2-2-2-2-2-2-|
E|-----------------------------------------------------------------|

 Pre-Chorus (And now I've been gone for so long ...)

 
 Guitar 2 (rythm)

e|-----------------------------------|
B|-----------------------------------|
G|------------------4-4-4-4----------|
D|-2-2-2-2-2-2-2-2--4-4-4-4--4-4-4-4-| (2x)
A|-2-2-2-2-2-2-2-2--2-2-2-2--4-4-4-4-|
E|-0-0-0-0-0-0-0-0-----------2-2-2-2-|

Then (All innocence is long gone ...)

 Guitar 1 (lead)

e|---------------------------------|
B|---------------------------------|
G|-4---/-3-\---4-\---6---/-4---/-3-|
D|-x--/--x--\--x--\--x--/--x--/--x-| (1x)
A|-2-/---1---\-2---\-4-/---2-/---1-|
E|---------------------------------|


 Guitar 2 (rythm)

e|-----------------------------------|
B|-----------------------------------|
G|------------------4-4-4-4----------|
D|-2-2-2-2-2-2-2-2--4-4-4-4--4-4-4-4-| (1x)
A|-2-2-2-2-2-2-2-2--2-2-2-2--4-4-4-4-|
E|-0-0-0-0-0-0-0-0-----------2-2-2-2-|

e|-----------------------------|
B|-----------------------------|
G|-9-9-9-9-9-9-9-9--4-4-4-4----|
D|-9-9-9-9-9-9-9-9--4-4-4-4--4-| (1x)
A|-7-7-7-7-7-7-7-7--2-2-2-2--4-|
E|---------------------------2-|



 Chorus (A walking disaster...)


 Guitar 2 (rythm)

e|------------------------------------|
B|------------------------------------|
G|-4-4-4-4----------------------------|
D|-4-4-4-4--4-4-4-4--6-6-6-6--2-2-2-2-| (1x)
A|-2-2-2-2--4-4-4-4--6-6-6-6--2-2-2-2-|
E|----------2-2-2-2--4-4-4-4--0-0-0-0-|

Then (You regret you made me...)

e|------------------------------|
B|------------------------------|
G|-4-4-4-4----------------------|
D|-4-4-4-4--4-4-4-4--6-6-6-6--2-| (1x)
A|-2-2-2-2--4-4-4-4--6-6-6-6--2-|
E|----------2-2-2-2--4-4-4-4--0-|



 Interlude (You regret you made me...) [backvoice] 

 
 Guitar 1 (lead)

e|-----------------------------------------------------------------|
B|-----------------------------------------------------------------|
G|-4-4-4-4-4-4-4-4-4-4-4-4-4-4-4-4-4-4-4-4-4-4-4-4-4-4-4-4-4-4-4-4-|
D|-x-x-x-x-x-x-x-x-x-x-x-x-x-x-x-x-x-x-x-x-x-x-x-x-x-x-x-x-x-x-x-x-| (1x)
A|-2-2-2-2-2-2-2-2-2-2-2-2-2-2-2-2-2-2-2-2-2-2-2-2-2-2-2-2-2-2-2-2-|
E|-----------------------------------------------------------------|

 
 Guitar 2 (rythm)

e|---------------------------------------------------------x-x-x-x-|
B|---------------------------------------------------------x-x-x-x-|
G|---------------------------------------------------------x-x-x-x-|
D|---------------------------------------------------------x-x-x-x-| (1x)
A|---------------------------------------------------------x-x-x-x-|
E|---------------------------------------------------------x-x-x-x-|


 Pre-Verse


 Guitar 1 (lead)
 
e|-------------------------------------------------------------------------|
B|-------------------------------------------------------------------------|
G|-4---/-11-\---8-\---4---/-11-\---8-\---4---/-11-\---8-\---4---/-11-\---8-|
D|-x--/--x---\--x--\--x--/--x---\--x--\--x--/--x---\--x--\--x--/--x---\--x-|
A|-2-/---9----\-6---\-2-/---9----\-6---\-2-/---9----\-6---\-2-/---9----\-6-|
E|-------------------------------------------------------------------------|

e|------------------------------------------------------|
B|------------------------------------------------------|
G|-11-11-11-11-11-11-11-11--13-13-13-13-13-13-13-13-----|
D|-x--x--x--x--x--x--x--x---x--x--x--x--x--x--x--x------|
A|-9--9--9--9--9--9--9--9---11-11-11-11-11-11-11-11-----|
E|------------------------------------------------------|

e|------------------------------------------------------|
B|------------------------------------------------------|
G|-15-15-15-15-15-15-15-15--16-16-16-16-16-16-16-16-\---|
D|-x--x--x--x--x--x--x--x---x--x--x--x--x--x--x--x---\--|
A|-13-13-13-13-13-13-13-13--14-14-14-14-14-14-14-14---\-|
E|------------------------------------------------------|


 Guitar 2 (rythm)


e|--------------------------------------------------------------------|
B|--------------------------------------------------------------------|
G|-4-4-4-4-4-4-4-4----------------------------------------------------|
D|-4-4-4-4-4-4-4-4--6-6-6-6-6-6-6-6--4-4-4-4-4-4-4-4--2-2-2-2-2-2-2-2-| (1x)
A|-2-2-2-2-2-2-2-2--6-6-6-6-6-6-6-6--4-4-4-4-4-4-4-4--2-2-2-2-2-2-2-2-|
E|------------------4-4-4-4-4-4-4-4--2-2-2-2-2-2-2-2--0-0-0-0-0-0-0-0-|


 Verse (As far as I can tell...)


 Guitar 2 (rythm)

e|--------------------------------------------------------------------|
B|--------------------------------------------------------------------|
G|-4-4-4-4-4-4-4-4----------------------------------------------------|
D|-4-4-4-4-4-4-4-4--4-4-4-4-4-4-4-4--6-6-6-6-6-6-6-6--2-2-2-2-2-2-2-2-| (1x)
A|-2-2-2-2-2-2-2-2--4-4-4-4-4-4-4-4--6-6-6-6-6-6-6-6--2-2-2-2-2-2-2-2-|
E|------------------2-2-2-2-2-2-2-2--4-4-4-4-4-4-4-4--0-0-0-0-0-0-0-0-|
     . . . . . . .    . . . . . . .    . . . . . . .    . . .   .   .

Then (As far as where I fell...)

e|--------------------------------------------------------------------|
B|--------------------------------------------------------------------|
G|-4-4-4-4-4-4-4-4----------------------------------------------------|
D|-4-4-4-4-4-4-4-4--4-4-4-4-4-4-4-4--6-6-6-6-6-6-6-6--2-2-2-2-2-2-2-2-| (1x)
A|-2-2-2-2-2-2-2-2--4-4-4-4-4-4-4-4--6-6-6-6-6-6-6-6--2-2-2-2-2-2-2-2-|
E|------------------2-2-2-2-2-2-2-2--4-4-4-4-4-4-4-4--0-0-0-0-0-0-0-0-|
     . . . . . . .    . . . . . . .    . . . . . . .    . . . . . . .


 Pre-Chorus (And now I've been gone for so long ...)

 
 Guitar 2 (rythm)

e|-----------------------------------|
B|-----------------------------------|
G|------------------4-4-4-4----------|
D|-2-2-2-2-2-2-2-2--4-4-4-4--4-4-4-4-| (2x)
A|-2-2-2-2-2-2-2-2--2-2-2-2--4-4-4-4-|
E|-0-0-0-0-0-0-0-0-----------2-2-2-2-|

Then (All innocence is long gone ...)

 Guitar 1 (lead)

e|---------------------------------|
B|---------------------------------|
G|-4---/-3-\---4-\---6---/-4---/-3-|
D|-x--/--x--\--x--\--x--/--x--/--x-| (1x)
A|-2-/---1---\-2---\-4-/---2-/---1-|
E|---------------------------------|


 Guitar 2 (rythm)

e|-----------------------------------|
B|-----------------------------------|
G|------------------4-4-4-4----------|
D|-2-2-2-2-2-2-2-2--4-4-4-4--4-4-4-4-| (1x)
A|-2-2-2-2-2-2-2-2--2-2-2-2--4-4-4-4-|
E|-0-0-0-0-0-0-0-0-----------2-2-2-2-|

e|-----------------------------|
B|-----------------------------|
G|-9-9-9-9-9-9-9-9--4-4-4-4----|
D|-9-9-9-9-9-9-9-9--4-4-4-4--4-| (1x)
A|-7-7-7-7-7-7-7-7--2-2-2-2--4-|
E|---------------------------2-|

 
 Chorus (A walking disaster...)


 Guitar 2 (rythm)

e|------------------------------------|
B|------------------------------------|
G|-4-4-4-4----------------------------|
D|-4-4-4-4--4-4-4-4--6-6-6-6--2-2-2-2-| (1x)
A|-2-2-2-2--4-4-4-4--6-6-6-6--2-2-2-2-|
E|----------2-2-2-2--4-4-4-4--0-0-0-0-|

Then (You regret you made me...)

e|------------------------------|
B|------------------------------|
G|-4-4-4-4----------------------|
D|-4-4-4-4--4-4-4-4--6-6-6-6--2-| (1x)
A|-2-2-2-2--4-4-4-4--6-6-6-6--2-|
E|----------2-2-2-2--4-4-4-4--0-|



 Bridge Part 1


 Guitar 2 (rythm)

e|-------------|
B|-------------|
G|-4~----------|
D|-4~-4~-2~----| (8x)
A|-2~-4~-2~----|
E|----2~-0~----|


Bridge Part 2


 Guitar 1 (lead)


e|---------------------------------------------|
B|---------------------------------------------|
G|-4-4-4-4---/-6-6-6-6---/-8-8-8-8---/-9-9-9-9-|
D|-x-x-x-x--/--x-x-x-x--/--x-x-x-x--/--x-x-x-x-| (1x)
A|-2-2-2-2-/---4-4-4-4-/---6-6-6-6-/---7-7-7-7-|
E|---------------------------------------------|

e|---------------------------------------|
B|---------------------------------------|
G|-4-4-4-4---/-6-6-6-6---/-8-8-8-8---/-9-|
D|-x-x-x-x--/--x-x-x-x--/--x-x-x-x--/--x-|
A|-2-2-2-2-/---4-4-4-4-/---6-6-6-6-/---7-|
E|---------------------------------------|


 Pre-Chorus (And now I've been gone for so long ...)

 
 Guitar 2 (rythm)

e|-----------------------------------|
B|-----------------------------------|
G|------------------4-4-4-4----------|
D|-2-2-2-2-2-2-2-2--4-4-4-4--4-4-4-4-| (2x)
A|-2-2-2-2-2-2-2-2--2-2-2-2--4-4-4-4-|
E|-0-0-0-0-0-0-0-0-----------2-2-2-2-|

Then (All innocence is long gone ...)

 Guitar 1 (lead)

e|---------------------------------|
B|---------------------------------|
G|-4---/-3-\---4-\---6---/-4---/-3-|
D|-x--/--x--\--x--\--x--/--x--/--x-| (1x)
A|-2-/---1---\-2---\-4-/---2-/---1-|
E|---------------------------------|


 Guitar 2 (rythm)

e|-----------------------------------|
B|-----------------------------------|
G|------------------4-4-4-4----------|
D|-2-2-2-2-2-2-2-2--4-4-4-4--4-4-4-4-| (1x)
A|-2-2-2-2-2-2-2-2--2-2-2-2--4-4-4-4-|
E|-0-0-0-0-0-0-0-0-----------2-2-2-2-|

e|-----------------------------|
B|-----------------------------|
G|-9-9-9-9-9-9-9-9--4-4-4-4----|
D|-9-9-9-9-9-9-9-9--4-4-4-4--4-| (1x)
A|-7-7-7-7-7-7-7-7--2-2-2-2--4-|
E|---------------------------2-|

 
 Chorus (A walking disaster...)


 Guitar 2 (rythm)

e|------------------------------------|
B|------------------------------------|
G|-4-4-4-4----------------------------|
D|-4-4-4-4--4-4-4-4--6-6-6-6--2-2-2-2-| (1x)
A|-2-2-2-2--4-4-4-4--6-6-6-6--2-2-2-2-|
E|----------2-2-2-2--4-4-4-4--0-0-0-0-|

Then (You regret you made me...)

e|------------------------------|
B|------------------------------|
G|-4-4-4-4----------------------|
D|-4-4-4-4--4-4-4-4--6-6-6-6--2-| (1x)
A|-2-2-2-2--4-4-4-4--6-6-6-6--2-|
E|----------2-2-2-2--4-4-4-4--0-|



 Interlude


 Guitar 1


e|-------------------------------------------------------------------------|
B|-------------------------------------------------------------------------|
G|-4---/-11-\---8-\---4---/-11-\---8-\---4---/-11-\---8-\---4---/-11-\---8-|
D|-x--/--x---\--x--\--x--/--x---\--x--\--x--/--x---\--x--\--x--/--x---\--x-|
A|-2-/---9----\-6---\-2-/---9----\-6---\-2-/---9----\-6---\-2-/---9----\-6-|
E|-------------------------------------------------------------------------|

e|-------------------------------------------------------------------------|
B|-------------------------------------------------------------------------|
G|-4---/-11-\---8-\---4---/-11-\---8-\---4---/-6--\---8-\---4---/-8--\---8-|
D|-x--/--x---\--x--\--x--/--x---\--x--\--x--/--x---\--x--\--x--/--x---\--x-|
A|-2-/---9----\-6---\-2-/---9----\-6---\-2-/---4----\-6---\-2-/---4----\-6-|
E|-------------------------------------------------------------------------|

e|-------------------------------------------------------------------------|
B|-------------------------------------------------------------------------|
G|-4---/-11-\---8-\---4---/-11-\---8-\---4---/-11-\---8-\---4---/-11-\---8-|
D|-x--/--x---\--x--\--x--/--x---\--x--\--x--/--x---\--x--\--x--/--x---\--x-|
A|-2-/---9----\-6---\-2-/---9----\-6---\-2-/---9----\-6---\-2-/---9----\-6-|
E|-------------------------------------------------------------------------|

e|------------------------------------------------------|
B|------------------------------------------------------|
G|-11-11-11-11-11-11-11-11--13-13-13-13-13-13-13-13-----|
D|-x--x--x--x--x--x--x--x---x--x--x--x--x--x--x--x------|
A|-9--9--9--9--9--9--9--9---11-11-11-11-11-11-11-11-----|
E|------------------------------------------------------|

e|------------------------------------------------------|
B|------------------------------------------------------|
G|-15-15-15-15-15-15-15-15--16-16-16-16-16-16-16-16-\---|
D|-x--x--x--x--x--x--x--x---x--x--x--x--x--x--x--x---\--|
A|-13-13-13-13-13-13-13-13--14-14-14-14-14-14-14-14---\-|
E|------------------------------------------------------|


 Guitar 2 (rythm)


e|------------------------------------|
B|------------------------------------|
G|-4-4-4-4----------------------------|
D|-4-4-4-4--6-6-6-6--4-4-4-4--2-2-2-2-| (1x)
A|-2-2-2-2--6-6-6-6--4-4-4-4--2-2-2-2-|
E|----------4-4-4-4--2-2-2-2--0-0-0-0-|

e|------------------------------|
B|------------------------------|
G|-4-4-4-4----------------------|
D|-4-4-4-4--6-6-6-6--4-4-4-4--2-| (1x)
A|-2-2-2-2--6-6-6-6--4-4-4-4--2-|
E|----------4-4-4-4--2-2-2-2--0-|


 Outro (I will be home in a while...)

 
 Guitar 2 (rythm)

e|--------------------------------------------------------------------|
B|-4-4-4-4-4-4-4-4----------------------------------------------------|
G|-4-4-4-4-4-4-4-4--3-3-3-3-3-3-3-3--4-4-4-4-4-4-4-4--1-1-1-1-1-1-1-1-|
D|-4-4-4-4-4-4-4-4--4-4-4-4-4-4-4-4--6-6-6-6-6-6-6-6--2-2-2-2-2-2-2-2-| (2x)
A|-2-2-2-2-2-2-2-2--4-4-4-4-4-4-4-4--6-6-6-6-6-6-6-6--2-2-2-2-2-2-2-2-|
E|------------------2-2-2-2-2-2-2-2--4-4-4-4-4-4-4-4--0-0-0-0-0-0-0-0-|
 

I'm pretty sure about this song 'cause I've got a vocal remover for Winamp.

;)

Notice:

| /  slide up
| \  slide down
| h  hammer-on
| p  pull-off
| ~  vibrato
| +  harmonic
| x  mute note
| *  feedback
| .  palm mute

============================================================================

Lyrics:

I haven't been home for a while
I'm sure everything's the same
Mom and Dad both in denial
An only child to take the blame

Sorry, Mom, but I don't miss you
Father's no name you deserve
I'm just a kid with no ambitions
Wouldn't come home for the world

Never know what I've become
The king of all that's said and done
The forgotten son

This city's buried in defeat
I walk along these no-name streets
Wave goodbye to home

As I fall...

At the dead-end I begin
To burn a bridge of innocence
Satisfaction guaranteed
A pillow-weight catastrophe

Our own mission nowhere bound
Inhibitions underground
A shallow grave I
Have dug all by myself

And now I've been gone for so long
I can't remember who was wrong
All innocence is long gone
I pledge allegiance to a world of disbelief
Where I belong

A walking disaster
The son of all bastards
You regret you made me
It's too late to save me
(You regret you made me
It's too late to save me)

As far as I can tell
It's just voices in my head


Am I talking to myself?
'Cause I don't know what I just said

(And she said)
As far as where I fell
Maybe I'm better off dead
Am I at the end of nowhere
Is this as good as it gets?

And now I've been gone for so long
I can't remember who was wrong
All innocence is long gone
I pledge allegiance to a world of disbelief
Where I belong

A walking disaster
The son of all bastards
You regret you made me
It's too late to save me
(To save me, to save me, to save me, ...)

("It's too late") [x2]

To save me, to save me, to save me, to save me

And now I've been gone for so long
I can't remember who was wrong
All innocence is long gone
I pledge allegiance to a world of disbelief
Where I belong

A walking disaster
The son of all bastards
You regret you made me
It's too late to save me

I will be home in a while
You don't have to say a word
I can't wait to see you smile
Wouldn't miss it for the world

I will be home in a while
You don't have to say a word
I can't wait to see you smile
Wouldn't miss it for the world



Enjoy this song :P    

Added On December 16th, 2013

SHARE

Comments

blog comments powered by Disqus