Sum 41 Tabs

Welcome To Hell

2 versions

TAB

            Welcome To Hell Tab by Sum 41


-------------------------------------------------------------------------------
			     "Welcome to Hell" - Sum 41
-------------------------------------------------------------------------------
Tabbed by: [travis]
Email: syn_gates_punk14@msn.com

Tuning: All Guitars: Eb Ab Db Gb Bb Eb (low to high) 

...= palm mute
\ /= slides
~~~= vibrato
[2x] = # of times that section should be played.

Intro:
Guitar 1:                                         Guitar 2 joins in here.
eb|----------------------------------------------|-----------------------------|
Bb|----------------------------------------------|-----------------------------|
Gb|----------------------------------------------|-----------------------------|
Db|-9-9--9-9-7--9-9--7-7-7-------------7-7--7-7-7|--9-9--9-9-7--9-9--7-7-7-----|
Ab|-7-7--7-7-5--7-7--5-5-5-5-5--5-5-5--5-5--5-5-5|--7-7--7-7-5--7-7--5-5-5-----|
Eb|------------------------3-3--3-3-3------------|-----------------------------|

Intro cont'd:
Guitars 1 and 2:
eb|---------------------------------------------------------------------------|
Bb|---------------------------------------------------------------------------|
Gb|-------------7-7-----------------------------------------------------------|
Db|-------------7-7-----------------------------------------------------------|
Ab|-5-5--5-5-5--5-5-----------------------------------------------------------|
Eb|-3-3--3-3-3--5-5-----------------------------------------------------------|

Verse:
Guitars 1 and 2: [2x]
eb|---------------------------------------------------------------------------|
Bb|---------------------------------------------------------------------------|
Gb|---------------------------------------------------------------------------|
Db|-9-9---7-9-9--7-9-9--7-9-9--7---------7-7---7---------9--9-9-9--7----------|
Ab|-7-7---5-7-7--5-7-7--5-7-7--5-5-5---5-5-5---5-5-5--5/-7--7-7-7--5----------|
Eb|------------------------------3-3---3---------3-3--------------------------|


Interlude:
Guiatars 1 and 2: [1x]
eb|----------------------------------------------------------------------------------------------|
Bb|----------------------------------------------------------------------------------------------|
Gb|----------------------------------------------------------------------------------------------|
Db|-9-9--9-9-7--9-9--7-7-7-------------7-7--7-7-7--9-9--9-9-7--9-9--9-9-7--------------7-7-7-7-7-|
Ab|-7-7--7-7-5--7-7--5-5-5-5-5--5-5-5--5-5--5-5-5--7-7--7-7-5--7-7--7-7-5--5-5--5-5-5--5-5-5-5-5-|
Eb|------------------------3-3--3-3-3--------------------------------------3-3--3-3-3------------|


Verse 2:
Guitars 1 and 2: [2x]
eb|---------------------------------------------------------------------------|
Bb|---------------------------------------------------------------------------|
Gb|---------------------------------------------------------------------------|
Db|-9-9---7-9-9--7-9-9--7-9-9--7---------7-7---7---------9--9-9-9--7----------|
Ab|-7-7---5-7-7--5-7-7--5-7-7--5-5-5---5-5-5---5-5-5--5/-7--7-7-7--5----------|
Eb|------------------------------3-3---3---------3-3--------------------------|

Chorus:
Guitars 1 and 2: Play whole chorus twice.
           "...time's running out"             "not even when you shout."
eb|---------------------------------------------------------------------------|
Bb|----------------------------8--8---------------------------------8--8------|
Gb|-5--------------------------9--9-------5-5---5-------------------9--9------|
Db|-5--5---5------/7--7-7--9---9--9----9\-5-5---5----------7-7---7--9--9------|
Ab|-3--3---3-5-5--/5--5-5--7---7--7----7\-3-3---3--5-5--5--5-5---5--7--7------|
Eb|----------3-3-----------------------------------3-3--3---------------------|
*The lyrics above the riff is telling you where the 7/9/9/8 part is located at.*


Chorus cont'd:
Guitars 1 and 2:
                                         "no one will be with you in the end"
eb|---------------------------------------------------------------------------|
Bb|---------------------------------------------------------------------------|
Gb|----5-------------------------9-9---9------4--------------------9--(9)\----|
Db|-9--5-5---5----------7-7---7--9-9---9------4-------7--7--7--7---9--(9)\----|
Ab|-7--3-3---3-5-5---5--5-5---5--7-7---7--2---2---5---5--5--5--5---7--(7)\----|
Eb|------------3-3---3--------------------0-------3---------------------------|



*Bass Solo.*


After Bass solo:
Both Guitars:
Eb|---17\---|


Verse 3:
Guitars 1 and 2: [2x]
eb|---------------------------------------------------------------------------|
Bb|---------------------------------------------------------------------------|
Gb|---------------------------------------------------------------------------|
Db|-9-9---7-9-9--7-9-9--7-9-9--7---------7-7---7---------9--9-9-9--7----------|
Ab|-7-7---5-7-7--5-7-7--5-7-7--5-5-5---5-5-5---5-5-5--5/-7--7-7-7--5----------|
Eb|------------------------------3-3---3---------3-3--------------------------|


Chorus 2:
Guitars 1 and 2: Play the whole chorus twice.
           "...time's running out"             "not even when you shout."
eb|---------------------------------------------------------------------------|
Bb|----------------------------8--8---------------------------------8--8------|
Gb|-5--------------------------9--9-------5-5---5-------------------9--9------|
Db|-5--5---5------/7--7-7--9---9--9----9\-5-5---5----------7-7---7--9--9------|
Ab|-3--3---3-5-5--/5--5-5--7---7--7----7\-3-3---3--5-5--5--5-5---5--7--7------|
Eb|----------3-3-----------------------------------3-3--3---------------------|
*The lyrics above the riff is telling you where the 7/9/9/8 part is located at.*


Chorus 2 cont'd:
Guitars 1 and 2:
                                         "no one will be with you in the end"
eb|---------------------------------------------------------------------------|
Bb|---------------------------------------------------------------------------|
Gb|----5-------------------------9-9---9------4--------------------9--(9)\----|
Db|-9--5-5---5----------7-7---7--9-9---9------4-------7--7--7--7---9--(9)\----|
Ab|-7--3-3---3-5-5---5--5-5---5--7-7---7--2---2---5---5--5--5--5---7--(7)\----|
Eb|------------3-3---3--------------------0-------3---------------------------|


Drum solo:
Guitar 1: [1x]
eb|----------------------------------------------------------19~~~~-----------|
Bb|--17~~~~~~~~~~~~~~~~~~~~~~~~~~~~~~~~~~~~~~~~~~~~~~~~~~~~~------------------|
Gb|---------------------------------------------------------------------------|
Db|---------------------------------------------------------------------------|
Ab|---------------------------------------------------------------------------|
Eb|---------------------------------------------------------------------------|

Guitar 2: Volume Swells: each note is at least 3 seconds apart.
eb|--19--------------19-----------------15------------------------------------|
Bb|---------------------------------------------------------------------------|
Gb|---------------------------------------------------------------------------|
Db|---------------------------------------------------------------------------|
Ab|---------------------------------------------------------------------------|
Eb|---------------------------------------------------------------------------|

There's another guitar during the solo, but it's just doing random pick slides and
harmonics, and trills.



Chorus 3:
Guitars 1 and 2: Play the whole chorus twice.
           "...time's running out"             "not even when you shout."
eb|---------------------------------------------------------------------------|
Bb|----------------------------8--8---------------------------------8--8------|
Gb|-5--------------------------9--9-------5-5---5-------------------9--9------|
Db|-5--5---5------/7--7-7--9---9--9----9\-5-5---5----------7-7---7--9--9------|
Ab|-3--3---3-5-5--/5--5-5--7---7--7----7\-3-3---3--5-5--5--5-5---5--7--7------|
Eb|----------3-3-----------------------------------3-3--3---------------------|
*The lyrics above the riff is telling you where the 7/9/9/8 part is located at.*


Chorus 3 cont'd:
Guitars 1 and 2:
                                         "no one will be with you in the end"
eb|---------------------------------------------------------------------------|
Bb|---------------------------------------------------------------------------|
Gb|----5-------------------------9-9---9------4--------------------9--(9)\----|
Db|-9--5-5---5----------7-7---7--9-9---9------4-------7--7--7--7---9--(9)\----|
Ab|-7--3-3---3-5-5---5--5-5---5--7-7---7--2---2---5---5--5--5--5---7--(7)\----|
Eb|------------3-3---3--------------------0-------3---------------------------|


Outro:
Guitars 1 and 2: [1x]
eb|---------------------------------------------------------------------------|
Bb|---------------------------------------------------------------------------|
Gb|---------------------------------------------------------------------------|
Db|-9--9----9--5--7----5--9--9----9--5---7----5-----9--9---9--5--7------------|
Ab|-7--7----7--3--5----3--7--7----7--3---5----3-----7--7---7--3--5---2---2----|
Eb|------------------------------------------------------------------0---0----|
                                                                     .

There you have it. It's a pretty easy song to play. Rate it.
[travis]    

Added On December 16th, 2013

SHARE

Comments

blog comments powered by Disqus

VERSIONS

ADVERTISEMENT