Sum 41 Tabs

Were All To Blame

3 versions

TAB

            We're All To Blame !
tuning: Eb Ab Db Gb Bb eb [half step down]

i'll tab this thing like this

eb|---------||
Bb|---------||
Gb|---------||
Db|---------||
Ab|---------||
Eb|---------||
  |         ||
  |         ||
eb|---------||
Bb|---------||
Gb|---------||
Db|---------||
Ab|---------||
Eb|---------||

upper part will be Dave's part and lower Deryck's.. so here it is:

INTRO

eb|--------------------------------------------------||
Bb|--------------------------------------------------||
Gb|-9-999-9999-10-9-9-999-9999-10-9-9-999-9999-10-9--||
Db|-x-xxx-xxxx-xx-x-x-xxx-xxxx-xx-x-x-xxx-xxxx-xx-x--||
Ab|-7-777-7777--8-7-7-777-7777--8-7-7-777-7777--8-7--||
Eb|--------------------------------------------------||
  |                                                  ||
  |                                                  ||
eb|--------------------------------------------------||
Bb|--------------------------------------------------||
Gb|--------------------------------------------------||
Db|--------------------------------------------------||
Ab|--------------------------------------------------||
Eb|--------------------------------------------------||


eb|--------------||
Bb|--------------||
Gb|--------------||
Db|-5-4-5-7-2-3--||
Ab|-3-2-3-5-2-3--||
Eb|--------------||
  |              ||
  |              ||
eb|--------------||
Bb|--------------||
Gb|--------------||
Db|-5-4-5-7-4-5--||
Ab|-3-2-3-5-2-3--||
Eb|--------------||


eb|------------------------------------------||
Bb|------------------------------------------||
Gb|---------------------------------||
Db|---------------------------------||
Ab|-2-2222222-----22222222-----22222222------||
Eb|-0-0000000-----00000000-----00000000------||
  |                                          ||
  |                                          ||
eb|------------------------------------------||
Bb|------------------------------------------||
Gb|------------------------------------------||
Db|------------------------------------------||
Ab|-2-2222222-----22222222-----22222222------||
Eb|-0-0000000-----00000000-----00000000------||


eb|---------------------------------------||
Bb|---------------------------------------||
Gb|---------------------------------------||
Db|-5-4-5-7-2-3--5-4-5-7-4-5--------------||
Ab|-3-2-3-5-2-3--3-2-3-5-2-3--2--2--2--2--||
Eb|---------------------------0--0--0--0--||
  |PM            . . . . . .              ||
  |                                       ||
eb|---------------------------------------||
Bb|---------------------------------------||
Gb|---------------------------------------||
Db|-5-4-5-7-2-3--5-4-5-7-4-5--------------||
Ab|-3-2-3-5-2-3--3-2-3-5-2-3--2--2--2--2--||
Eb|---------------------------0--0--0--0--||
   PM            . . . . . .


VERSE 1

eb|-----------------------------------||
Bb|-----------------------------------||
Gb|-----------------------------------||
Db|-----------------------------------||
Ab|-77777777-2222-55555555-3333-2222--||
Eb|-----------------------------------||
  |                                   ||
  |                                   ||
eb|-----------------------------------||
Bb|-----------------------------------||
Gb|-----------------------------------||
Db|-----------------------------------||
Ab|-----------------------------------||
Eb|-----------------------------------||

eb|-------------------------------------||
Bb|-------------------------------------||
Gb|-------------------------------------||
Db|-------------------------------------||
Ab|-2--2-5-2-2--2-4-2-2--2-3-2-2--3--3--||
Eb|-0--0-3-0-0--0-2-0-0--0-1-0-0--1--1--||
  | .  . . . .  . . . .  . . . .        ||
  |                                     ||
eb|-------------------------------------||
Bb|-------------------------------------||
Gb|-------------------------------------||
Db|-------------------------------------||
Ab|-2--2-5-2-2--2-4-2-2--2-3-2-2--3--3--||
Eb|-0--0-3-0-0--0-2-0-0--0-1-0-0--1--1--||
    .  . . . .  . . . .  . . . .

eb|-----------------------------------||
Bb|-----------------------------------||
Gb|-----------------------------------||
Db|-----------------------------------||
Ab|-77777777---------------5555-------||
Eb|----------5555-77777777------8888--||
  |                                   ||
  |                                   ||
eb|-----------------------------------||
Bb|-----------------------------------||
Gb|-----------------------------------||
Db|-----------------------------------||
Ab|-----------------------------------||
Eb|-----------------------------------||

eb|-------------------------------------||
Bb|-------------------------------------||
Gb|-------------------------------------||
Db|-------------------------------------||
Ab|-2--2-5-2-2--2-4-2-2--2-3-2-2--3--3--||
Eb|-0--0-3-0-0--0-2-0-0--0-1-0-0--1--1--||
  | .  . . . .  . . . .  . . . .        ||
  |                                     ||
eb|-------------------------------------||
Bb|-------------------------------------||
Gb|-------------------------------------||
Db|-------------------------------------||
Ab|-2--2-5-2-2--2-4-2-2--2-3-2-2--3--3--||
Eb|-0--0-3-0-0--0-2-0-0--0-1-0-0--1--1--||
    .  . . . .  . . . .  . . . .

eb|-----------------------------------||
Bb|-----------------------------------||
Gb|-----------------------------------||
Db|-----------------------------------||
Ab|-77777777-2222-55555555-3333-2222--||
Eb|-----------------------------------||
  |                                   ||
  |                                   ||
eb|-----------------------------------||
Bb|-----------------------------------||
Gb|-----------------------------------||
Db|-----------------------------------||
Ab|-10~-----------12~------9~---5-----||
Eb|-----------------------------------||

eb|-------------------------------------||
Bb|-------------------------------------||
Gb|-------------------------------------||
Db|-------------------------------------||
Ab|-2--2-5-2-2--2-4-2-2--2-3-2-2--3--3--||
Eb|-0--0-3-0-0--0-2-0-0--0-1-0-0--1--1--||
  | .  . . . .  . . . .  . . . .        ||
  |                                     ||
eb|-------------------------------------||
Bb|-------------------------------------||
Gb|-------------------------------------||
Db|-------------------------------------||
Ab|-2--2-5-2-2--2-4-2-2--2-3-2-2--3--3--||
Eb|-0--0-3-0-0--0-2-0-0--0-1-0-0--1--1--||
    .  . . . .  . . . .  . . . .

eb|-----------------------------------||
Bb|-----------------------------------||
Gb|-----------------------------------||
Db|-----------------------------------||
Ab|-77777777---------------5555-------||
Eb|----------5555-77777777------8888--||
  |                                   ||
  |                                   ||
eb|-----------------------------------||
Bb|-----------------------------------||
Gb|-----------------------------------||
Db|-10~-----------9~-------12~--9-----||
Ab|-----------------------------------||
Eb|-----------------------------------||

eb|---------------------------------||
Bb|---------------------------------||
Gb|---------------------------------||
Db|---------------------------------||
Ab|-2--2-5-2-2--2-4-2--5-4-5-7-4-5--||
Eb|-0--0-3-0-0--0-2-0--3-2-3-5-2-3--||
  | .  . . . .  . . .               ||
  |                                 ||
eb|---------------------------------||
Bb|---------------------------------||
Gb|---------------------------------||
Db|---------------------------------||
Ab|-2--2-5-2-2--2-4-2--5-4-5-7-4-5--||
Eb|-0--0-3-0-0--0-2-0--3-2-3-5-2-3--||
  | .  . . . .  . . .               ||


CHORUS 1

eb|----------------------||
Bb|----------------------||
Gb|----------------------||
Db|-2~-------------------||
Ab|-0~-------------------||
Eb|----------------------||
  |                      ||
  | Am    Dm    G    Em  ||
eb|-0-----1-----3----0---||
Bb|-1-----3-----3----0---||
Gb|-2-----2-----0----0---||
Db|-2-----0-----0----2---||
Ab|-0-----------2----2---||
Eb|-------------3----0---||


eb|-5---------0-1-0-----3---0---3-0--||
Bb|---5---5-----------3---3---0------||
Gb|-----5---2-------0----------------||
Db|----------------------------------|| \
Ab|----------------------------------||  \
Eb|----------------------------------||   \
  |                                  ||    play 3x
  | Am      Dm      G       Em       ||   /
eb|----------------------------------||  /
Bb|----------------------------------|| /
Gb|----------------------------------||
Db|----------------------------------||
Ab|----------------------------------||
Eb|----------------------------------||


RIFF TO VERSE 2:

eb|--------------------------||
Bb|--------------------------||
Gb|--------------------------||
Db|-5-4-5-7-2-3--------------||
Ab|-3-2-3-5-2-3--2--2--2--2--||
Eb|--------------0--0--0--0--||
  |                          ||
  |                          ||
eb|--------------------------||
Bb|--------------------------||
Gb|--------------------------||
Db|-5-4-5-7-2-3--------------||
Ab|-3-2-3-5-2-3--2--2--2--2--||
Eb|--------------0--0--0--0--||
   

VERSE 2 [same as verse one]

CHORUS 2

eb|----------------------||
Bb|----------------------||
Gb|----------------------||
Db|-2~-------------------||
Ab|-0~-------------------||
Eb|----------------------||
  |                      ||
  | Am    Dm    G    Em  ||
eb|-0-----1-----3----0---||
Bb|-1-----3-----3----0---||
Gb|-2-----2-----0----0---||
Db|-2-----0-----0----2---||
Ab|-0-----------2----2---||
Eb|-------------3----0---||


eb|-5---------0-1-0-----3---0---3-0--||
Bb|---5---5-----------3---3---0------||
Gb|-----5---2-------0----------------||
Db|----------------------------------|| \
Ab|----------------------------------||  \
Eb|----------------------------------||   \
  |                                  ||    play 3x
  | Am      Dm      G       Em       ||   /
eb|----------------------------------||  /
Bb|----------------------------------|| /
Gb|----------------------------------||
Db|----------------------------------||
Ab|----------------------------------||
Eb|----------------------------------||


eb|-17-17-17-17-19-19-19-19-20-20-20-20-15-15-15-15--||
Bb|-17-17-17-17-19-19-19-19-20-20-20-20-15-15-15-15--||
Gb|--------------------------------------------------||
Db|--------------------------------------------------|| \
Ab|--------------------------------------------------||  \
Eb|--------------------------------------------------||   \
  |                                                  ||    play 2x [second time end on G]
  | Am          F           C           G            ||   /
eb|--------------------------------------------------||  /
Bb|--------------------------------------------------|| /
Gb|--------------------------------------------------||
Db|--------------------------------------------------||
Ab|--------------------------------------------------||
Eb|--------------------------------------------------||


BRIGDE

eb|----------------------------------||
Bb|----------------------------------||
Gb|----------------------------------||
Db|----------------------------------|| \
Ab|-2-2222-5-2-2222-4-2-22222--------||  \
Eb|-0-0000-3-0-0000-2-0-00000-2-3-5--||   \
  |   ....     ....     .....        ||    play 2x
  |                                  ||   /
eb|----------------------------------||  / 
Bb|----------------------------------|| /
Gb|----------------------------------||
Db|----------------------------------||
Ab|-2-2222-5-2-2222-4-2-22222--------||
Eb|-0-0000-3-0-0000-2-0-00000-2-3-5--||
      ....     ....     .....

eb|-----------------------------------------------------------------------||
Bb|-----------------------------------------------------------------------||
Gb|----------------------------------------------5----------4----------5--||
Db|----------------------------------------------x----------x----------x--||
Ab|-22222222-22222222-22222222-22222222-22222222-3-22222222-2-22222222-3--|| i'm pretty sure
Eb|-00000000-00000000-00000000-00000000-00000000---00000000---00000000----|| Deryck doesn't
  |                                                                       || play anything
  |                                                                       || live but it
eb|-----------------------------------------------------------------------|| sounds better
Bb|-----------------------------------------------------------------------|| with both 
Gb|----------------------------------------------5----------4----------5--|| gutiars doing it
Db|----------------------------------------------x----------x----------x--||
Ab|-22222222-22222222-22222222-22222222-22222222-3-22222222-2-22222222-3--||
Eb|-00000000-00000000-00000000-00000000-00000000---00000000---00000000----||

eb|--------------------||
Bb|--------------------||
Gb|--------------------||
Db|--------------------||
Ab|-22222222255555555--||
Eb|-00000000033333333--||
  | ..............     ||
  |                    ||
eb|---------333333333--||
Bb|---------333333333--||
Gb|---------000000000--||
Db|---------000000000--||
Ab|-22222222222222222--||
Eb|-00000000033333333--||
  | .........          ||


CHORUS 3 [distorted]

eb|-5---------0-1-0-----3---0---3-0--||
Bb|---5---5-----------3---3---0------||
Gb|-----5---2-------0----------------||
Db|----------------------------------|| \
Ab|----------------------------------||  \
Eb|----------------------------------||   \
  |                                  ||    play 2x
  | Am      Dm      G       Em       ||   /
eb|----------------------------------||  /
Bb|----------------------------------|| /
Gb|----------------------------------||
Db|----------------------------------||
Ab|----------------------------------||
Eb|----------------------------------||

eb|-5-------7-------8-------3--------||
Bb|---5---5---5---5---5---5---3---3--||
Gb|-----5-------5-------5-------0----||
Db|----------------------------------|| \
Ab|----------------------------------||  \
Eb|----------------------------------||   \
  |                                  ||    play 4x
  | Am      F       C       G        ||   /
eb|----------------------------------||  /
Bb|----------------------------------|| /
Gb|----------------------------------||
Db|----------------------------------||
Ab|----------------------------------||
Eb|----------------------------------||


OUTRO

eb|----------------------||
Bb|----------------------||
Gb|----------------------||
Db|-2~-------------------||
Ab|-0~-------------------||
Eb|----------------------||
  |                      ||
  | Am    Dm    G    Em  ||
eb|-0-----1-----3----0---||
Bb|-1-----3-----3----0---||
Gb|-2-----2-----0----0---||
Db|-2-----0-----0----2---||
Ab|-0-----------2----2---||
Eb|-------------3----0---||


eb|-5-----------1-------3---0--------||
Bb|---5---5---3---3---3---3---0---0--||
Gb|-----5---2-------0-----------0----||
Db|----------------------------------|| \
Ab|----------------------------------||  \
Eb|----------------------------------||   \
  |                                  ||    play 3x
  | Am      Dm      G       Em       ||   /
eb|----------------------------------||  /
Bb|----------------------------------|| /
Gb|----------------------------------||
Db|----------------------------------||
Ab|----------------------------------||
Eb|----------------------------------||

eb|-----||
Bb|-----||
Gb|-----||
Db|-2~--||
Ab|-0~--||
Eb|-----||
  |     ||
  | Am~ ||
eb|-0---||
Bb|-1---||
Gb|-2---||
Db|-2---||
Ab|-0---||
Eb|-----||

so that's all !.. hate mail at.. oskr__mdo14@hotmail.com   =)    

Added On December 16th, 2013

SHARE

Comments

blog comments powered by Disqus

VERSIONS

ADVERTISEMENT