TAB

            Add Tab by System Of A Down


A.D.D. by System of a Down
Album:Steal This Album
Drop C Tuning

Intro:
10--10-10-10-10-10-10^-10-10-10-|-----|
--------------------------------|     |
--------------------------------|     |Repeat As Neccesary
--------------------------------|     |
--------------------------------|     |
--------------------------------|-----|

Riff 1:
-----------------------------------------|-----|
-----------------------------------------|     |
7--------7--------7--------7-------------|     |
x--------x--------x--------x-------------|     |--x4
5-0-0-00-5-0-0-00-5-0-0-00-5-0-0-3-5-6-5-|     |
--0-0-00---0-0-00---0-0-00---0-0---------|-----|
  * * **   * * **   * * **   * *

Riff 2
--------------------------------------------------|
--------------------------------------------------|
--------------------------------------------------|---|
1--1-1--1-1\7--7-7--7-7-0--0-0--0-0\6--6-6--6-6---|   |
1--1-1--1-1\7--7-7--7-7-0--0-0--0-0\6--6-6--6-6---|   |
1--1-1--1-1\7--7-7--7-7-0--0-0--0-0\6--6-6--6-6---|   |
                                                      |
-----------------------------|                        |
-----------------------------|                        |
-----------------------------|------------------------|
11--11-11--11-11\-5--5-5--5-5|
11--11-11--11-11\-5--5-5--5-5|
11--11-11--11-11\-5--5-5--5-5|

Riff 3

Guitar 1

------------------------------------|
------------------------------------|
------------------------------------|
------------------------------------|
------------------------------------|
0-0-0-0-0-0-0-0-0-0-0-0-0-0-0-0-0...|
* * * * * * * * * * * * * * * * * * 

Guitar 2

-----------------------------------|
-----------------------------------|
10|-9-|-12-|-10-|-14-|-12-|15-|14--|
x-|-x-|-x--|-x--|-x--|-x--|x--|x---|
8-|-7-|-10-|-8--|-12-|-10-|13-|12--|
-----------------------------------|

Riff 4

Guitar 1
-----------------------------|
-----------------------------|
-----------------------------|
-----------------------------|
-----------------------------|
0--0--0-0-0--0--0-0...-------|
*  *  * * *  *  * *

Guitar 2
----------10^----------10^-|
---------------------------|
7--7--7-7-----7--7--7-7----|
---------------------------|
---------------------------|
---------------------------|

Riff 2:We don't give a...

Riff 2 Interlude

--------------------------|
--------------------------|
--------------------------|
--------5-----------------|
5-------------------------|
--0-0-0---0-0-0-----------|
h * * * h * * * 

Riff 2:We don't give a...
Riff 3:Right now...
Riff 4:The remainder is...
Riff 2:We don't give a...
Riff 2 Interlude:Right now...
Riff 2:We don't give a...

Riff 5

-----------------------------|
-----------------------------|
-----------------------------|
----5-------5-------5-------5|
5-------5-------5-------5----|
-----------------------------|
h   h   h   h   h   h   h   h

Riff 1:...
Riff 3-Guitar 2:
Riff 4:The remainder is...
Riff 2:We don't give a....
Riff 5:Right now...

There, i think thats all of it.
Good luck, and tell me how i did.    

Added On December 12th, 2013

SHARE

Comments

blog comments powered by Disqus

VERSIONS

ADVERTISEMENT