T-Rex Tabs

I Love To Boogie

3 versions

TAB

            I Love To Boogie Tab by T Rex


INTRO
e|---------|
B|---------|
G|---------|
D|---------|
A|---------|
E|-0--2--4-|

Repeat
e|-------------------------------------------------------|
B|-------------------------------------------------------|
G|-----------------------2--2--2--2--2--2--2--2----------|
D|-2-2--2-2--2-2-2--2----0--0--4--0--0--0--4--0----------|
A|-0-0--4-0--0-0-4--0------------------------------------|
E|-------------------------------------------------------|    

Added On December 12th, 2013

SHARE

Comments

blog comments powered by Disqus

VERSIONS

ADVERTISEMENT