Tame Impala Tabs

Bold Arrow Of Time

1 versions

TAB

            Bold Arrow of Time - Tame Impala
from their Demos

these are the riffs played throughout the song :


E----------------------------------------------------|
B----------------------------------------------------|
G----------10---b12—-10—-b12-------------------------|         x4
D----/12-------------------------12--10--12----------|
A----------------------------------------------------|
E---------------------------------------------10-----|

E----------------------------------------------------|
B----------------------------------------------------|
G----------10---b12—-10—-b12-------------------------|         x2
D----/12-------------------------12--10--12----------|
A---------------------------------------------12-----|
E---------------------------------------------10-----|


E----------------------------------------------------|
B----------------------------------------------------|
G----------------------------------------------------|         x2
D----------------------------------------------------|
A-----------8—-b10--8—-b10---------------------------|
E----10-----------------------10-8-10---10-----------|

E----------------------------------------------------|
B----------------------------------------------------|
G-------------—- ------------------------------------|       x2
D---------8—-b10--8--b10-----------------------------|
A----10--------------------10-8-10-------------------|
E--------------------------------------10------------|    

Added On December 16th, 2013

SHARE

Comments

blog comments powered by Disqus

ADVERTISEMENT