Tegan And Sara Tabs

Knife Going In

1 versions

TAB

            Title: Knife Going In
Artist: Tegan and Sara

Capo 3rd fret
-------------------------------------------------------------------

INTRO RIFF:
e|------------------------|
B|--5-------------5-------|
G|----4-5-2-5-0-----4-5-2-|
D|------------------------| play x2
A|------------------------|
E|------------------------|

VERSE:
(let chords ring)
  [Am]       [C]
e|--0---------0--|
B|--1---------1--|
G|--2---------0--|
D|--2---------2--| play x2
A|--0---3h2---3--|
E|---------------|

CHORUS:
(listen to song for strumming pattern)
  [Am]  [C]
e|--0-|--0-||
B|--1-|--1-||
G|--2-|--0-||
D|--2-|--2-|| play x2
A|--0-|--3-||
E|----|----||
(the intro riff is also played through the chorus)

-------------------------------------------------------------------

ORDER OF PARTS:
-intro
-verse
-chorus
-verse
-chorus x3

-------------------------------------------------------------------    

Added On December 16th, 2013

SHARE

Comments

blog comments powered by Disqus

ADVERTISEMENT