Tenacious D Tabs

City Hall

6 versions

TAB

            City Hall Tab by Tenacious D


Song: City Hall
Artist: Tenacious D
Album: Tenacious D (2002)

Standard Tuning (EADGBe)

Intro:
    All you people up there!...
e|------------------------|
B|--5---------------------|
G|--4-----------------4---|
D|--2-----------------4---|
A|--------------------2---|
E|------------------------|(repeat through intro)

   A        Ab A Ab A Ab etc.
e|-----------------------------------|
B|-----------------------------------|
G|-----------------------------------|
D|-77777777-6-7-6-7-6-7-6-7-6-7-6-7--|
A|-77777777-6-7-6-7-6-7-6-7-6-7-6-7--|
E|-55555555-4-5-4-5-4-5-4-5-4-5-4-5--| (this bit is played when they say "come along and rise..")

Main riff:
 (really fast, acoustically with palm mutes)
   A                 F       G
e|-5-5-5-5-5-5-5-5-5-1-1-1-1-3-3-3-3-|
B|-5-5-5-5-5-5-5-5-5-1-1-1-1-3-3-3-3-|
G|-6-6-6-6-6-6-6-6-6-2-2-2-2-4-4-4-4-|
D|-7-7-7-7-7-7-7-7-7-3-3-3-3-5-5-5-5-|
A|-7-7-7-7-7-7-7-7-7-3-3-3-3-5-5-5-5-|
E|-5-5-5-5-5-5-5-5-5-1-1-1-1-3-3-3-3-|

This is the bit thats played throughout "me and KG peep out our heads":

e|------0-------------|---------0-------|---------0-------|--------0-----|
B|--------0-2-----2---|-----2-0---0-2-0-|-----2-0---0-2p0-|----0-----0---|
G|--1h2-------1h2---2-|-----------------|--0----------0---|------2-----2-|
D|--------------------|--6--------------|-----------------|--4-----------|
A|--0-----------------|-----------------|-----------------|--------------|
E|--------------------|--4--------------|--3--------------|--5-----------|

e|----------0-------|----------0--------|---1----1-----0--|---------0----|
B|----3-------3---3-|----2-------2---0--|-----0----0------|-----------0--|
G|------2-----------|------1-------1----|-------2----2----|-------1------|
D|--3-----3-----3---|--2-----2----------|--0--------------|-----0--------|
A|--0---------------|--0----------------|-----------------|---2----------|
E|------------------|-------------------|-----------------|-0------------|(play that 
"I poisoned ur's aswell"

When they scream "NOOOOOOOOOOOOOOOOOOO!" resume main riff

And at some point it plays a slightly slower part different
to the one below, it's just the chords from the main riff
slower, the strumming pattern's not hard to work out.

Then when he says "people inside me, youÂ’re askin' me 2 blow up city hall..."

e|-------------------------------------------------------|
B|-----------------------------------------5-6-5---------|
G|------6h7-6------------------------6h7-6-5-5-5---7--5--|
D|----7-7---7--7-8-7-8-10-10-8-7----7------------7-7--7--|
A|---7-----------------------------7---------------------|
E|--5-----------------------------5----------------------|

Enjoy it! Rate it! :)    

Added On December 12th, 2013

SHARE

Comments

blog comments powered by Disqus

VERSIONS

ADVERTISEMENT