TAB

            Simple, but simply beautiful!

This is the first tab that I write myself. I have provided both chords and tabs, 
starting with chords, then the tab-variant afterward, and the tab is super-easy, just listen to 
the song and the timing will come.

I hope you enjoy them.

Intro: D - A - E    x2

            D        A                 E
Where the door are moaning all day long
            D           A                        E
Where the stairs are leaning from dusk 'till dawn

            D            A                    E
Where the windows are breathing in the light
            D            A                    E
Where the rooms are a collection of our lives

Hm             D             A            E
This is a place where I don't feel alone
Hm             D          A          E
This is a place that I call my home

Tab-section


INTRO
E|---2-2-2-2-2-2-2-2-2-2-2-2-2-2-2-2---|  (count to 4, 4 times)
B|-------------------------------------|
G|-------------------------------------|
D|-------------------------------------|
A|-------------------------------------|
E|-------------------------------------|

INTRO part 2 - keep same tempo as Intro, but add basenote
E|---2-2-2-2-2-2-2-2-2-2-2-2-2-2-2-2---|
B|-------------------------------------|
G|-------------------------------------|  x2
D|---4-------2-------------------------|
A|-------------------2-----------------|
E|-------------------------------------|

Then the lyrics start, repeat the next pattern for each line:

Where the door are moaning all day long
Where the stairs are leaning from dusk 'till dawn
Where the windows are breathing in the light
Where the rooms are a collection of our lives

E|---3-3-3-3-4-4-4-4-4-4-4-4-4-4-4-4---|
B|---2-2-2-2-2-2-2-2-------------------|
G|-------------------1-1-1-1-1-1-1-1---|
D|---0---------------------------------|
A|-----------0-------2------(2)--------|  (2) is optional
E|-------------------------------------|

For the ending; soft downstrokes on the chords.

Hm             D             A            E
This is a place where I don't feel alone
Hm             D          A          E
This is a place that I call my home    

Added On December 16th, 2013

SHARE

Comments

blog comments powered by Disqus

ADVERTISEMENT