The Fratellis Tabs

Whistle For The Choir

7 versions

TAB

            Whistle For The Choir Tab by The Fratellis


-------------------------------------------------------------------------------
			    Whistle For The Choir - The Fratellis
-------------------------------------------------------------------------------
Tabbed by: Aron S
Email: goodsum@hotmail.com

Tuning: Standard

Seeing as there isn't actually a perfect tab, i'll put my own up, adding to my Fratellis tabs.


The strumming goes like this:

    E
e|-----0-----0-----0-----0-0--|
B|-----0-----0-----0-----0-0--|
G|--1--1--1--1--1--1--1--1-1--|
D|--2--2--2--2--2--2--2--2-2--|
A|--2-----2-----2-----2----2--|
E|--0-----0-----0-----0----0--|



Intro/Verse:

    E   G#m   Gm  F#m   B
e|--0----4----3----2----2--|
B|--0----4----3----2----4--|
G|--1----4----3----2----4--|
D|--2----6----5----4----4--|
A|--2----6----5----4----2--|
E|--0----4----3----2-------|


     E
Well it's a big big city and it's always the same 

          G#m                            G#m Gm F#m
Can never be too pretty tell me you your name 

                                          B
Is it out of line if I were so bold to say "Would you be mine"?



Chorus:

    E    G#m   Gm   F#m    B
e|--7----11----10-----9----7---|
B|--9----12----11----10----7---|
G|--9----13----12----11----8---|
D|--9----13----12----11----9---|
A|--7----11----10-----9----9---|
E|-------------------------7---|

             E                             G#m
So if you're lonely why'd you say your not lonely 

          G#m Gm F#m
Oh your a silly girl, I know I hurt it so 

B
It's just like you to come 

           E                         G#m
And go you know me no you don't even know me 

        G#m Gm F#m
Your so sweet to try, oh my, you caught my eye 

B
A girl like you's just irresistible 



Interlude:

(This follows the same pattern as the verse and chorus)


    D    F#m   Fm    Em   A    B
e|--5-----9-----8----7----5----7--|
B|--7----10-----9----8----5----7--|
G|--7----11----10----9----6----8--|
D|--7----11----10----9----7----9--|
A|--5-----9-----8----7----7----9--|
E|------------------------5----7--|

    E    G#m   Gm   F#m    B
e|--7----11----10-----9----7---|
B|--9----12----11----10----7---|
G|--9----13----12----11----8---|
D|--9----13----12----11----9---|
A|--7----11----10-----9----9---|
E|-------------------------7---|


Interlude Solo:

e|--------------17-15-13-15-------------15-13-12-11-10-10-10-10--|
B|--18-18-18-18-------------17-17-17-17--------------------------|
G|---------------------------------------------------------------|
D|---------------------------------------------------------------|
A|---------------------------------------------------------------|
E|---------------------------------------------------------------|

e|--13-12-10-12----10-12-15--|
B|--------------13-----------|
G|---------------------------| (repeat all)
D|---------------------------|
A|---------------------------|
E|---------------------------|

| /  slide up
| \  slide down
| h  hammer-on
| p  pull-off
| ~  vibrato
| +  harmonic
| x  Mute note
===============================================================================    

Added On December 12th, 2013

SHARE

Comments

blog comments powered by Disqus