The Fray Tabs

How To Save A Life Intro

2 versions

TAB

            How To Save A Life Tab by The Fray


-------------------------------------------------------------------------------
			     How To Save A Life - The Fray
-------------------------------------------------------------------------------
Tabbed by:Josh

I decided I wanted to do a tab so I transposed the piano part in the beginning so we can 
play it.  It's a truly great song just like most of the other songs by The Fray.

Tuning:EADGBe

e|-------------------------------9-------------------------------------------|
B|-10-------------12---------------------------9-----------------------------|
G|----9----9-9-------9----9-9------9----9-9------9----9-9--------------------|    reapeat
D|------11-----11------11-----11-----11-----11-----11-----11-----------------| through verses
A|---------------------------------------------------------------------------|
E|---------------------------------------------------------------------------|


| /  slide up
| \  slide down
| h  hammer-on
| p  pull-off
| ~  vibrato
| +  harmonic
| x  Mute note
===============================================================================    

Added On December 12th, 2013

SHARE

Comments

blog comments powered by Disqus

VERSIONS

ADVERTISEMENT