The Fray Tabs

How To Save A Life Intro

2 versions

TAB

            How To Save A Life Tab by The Fray


How To Save A Life (piano intro)
The Fray
How To Save A Life

Tabbed by: Josh


ok, i saw the fray in concert in july when they toured with weezer and ben folds.  At 
time, no one knew who they were.  Right now, still no one knows who they are.  Im out to 
that, because they are really good and need to be heard.   Alright, the Fray arent even
on this site yet, so I decided just to do this little piano intro to get the train movin,
to speak...


it sounds like its in the key of Bb, so play around with picking the chords...


e|-------------------------------------------------------------------|
B|--------------------13~-----------------15~------------------------|
G|-15~---------------15-----------------15-------------------14~-----|
D|----15----15----15----15----15----15------15----15-----15----------|
A|-------13----13----------13----13------------13----13--------------|
E|-------------------------------------------------------------------|

again, its in Bb, so u can also play around with picking
e|--x----1----1----1--|
B|--x----1----3----3--|
B|--3----3----3----2--|
D|--3----3----3----3--|
A|--1----1----1----1--|
E|--1----1----1----1--|


Listen to the Fray

~Josh    

Added On December 12th, 2013

SHARE

Comments

blog comments powered by Disqus

VERSIONS

ADVERTISEMENT