The Heavy Tabs

How You Like Me Now

1 versions

TAB

            The Heavy - How you like me now

INTRO:

Guitar 1:              
  Dm      Dm       Dm Em    
   /   /   / / / /  /  /     
|---------10-------10-12-|
|---------10-------10-12-|
|-10--10--10-------10-12-|
|-12--12-----------------|
|-12--12-----------------|
|-10--10-----------------|

Guitar 2:
  Dm      Dm       Dm Em      / = tremolo picking
   /   /   / / / /  /  /  
|--5---5---5--------5--7-|
|--6---6---6--------6--8-|
|--7---7---7--------7--9-|
|--7---7-----------------|
|--5---5-----------------|
|--x---x-----------------|

COUPLETS:

Guitar 1:
  Dm      Dm       Dm Em   Dm      Dm       Dm Em   
   /   /   / / / /  /  /    /   /   / / / /  /  /  
|---------10-------10-12-|---------10-------10-12-|
|---------10-------10-12-|---------10-------10-12-|
|-10--10--10-------10-12-|-10--10--10-------10-12-|
|-12--12-----------------|-12--12-----------------|
|-12--12-----------------|-12--12-----------------|
|-10--10-----------------|-10--10-----------------|

Guitar 2:
  Dm                        F       G           
|-1----------------------|--1-------3-------------|
|-3----------------------|--1-------3-------------|
|-2--( let ring)---------|--2-------4-------------|
|-0----------------------|--3-------5-------------|
|-x----------------------|--3-------5-------------|
|-x----------------------|--1-------3-------------|

Lyrics:
INTRO : Dm Em (x3)

Now there was a time
When you loved me so
I could have been wrong
But now you needed to know
See, I've been a bad, bad, bad, bad man
And I'm in deep, Yes I am
I found a brand new love for this man
And I can't wait till you see
I can't wait

So how you like me now
How you like me now (x7)

Remember the time
When I eat you up
You know that I wasn't lyin'
that you can't give up
So if I was to cheat
on you baby would you see right through me
If I sing a sad, sad, sad, sad song
would you give it to me

How you like me now (x8)

Does that make you love me baby
Does that make you want me baby
Does that make you love me baby
Does that make you want me baby

How you like me now (x4)    

Added On December 16th, 2013

SHARE

Comments

blog comments powered by Disqus

ADVERTISEMENT