The Horrors Tabs

Sheena Is A Parasite

7 versions

TAB

            Sheena Is A Parasite Tab by The Horrors



The Horrors
Sheena Is A Parasite
Sheena Is A Parasite EP/7”

Great Brit Art punk act.

This is just the main riff becos the chorus and stuff is just feedback and crazy slide and stuff.


Bass riff guitar(for a bass sound turn the eq bass up and treb and mid down)
|  --------------------------------------------------------- |
|  --------------------------------------------------------- |
|  --------------------------------------------------------- |
|  --------------------------------------------------------- |
|  --------------------------------------------------------- |
|  -5-3-5-3-5-3-5-3-5-3-5-3-5-3-5-3-5-3-5-3-5-3-5-3-5-3-5-3- |


|  --------------------------------------------------------------- |
|  -9-9--x--12-12---7-7--x--10-10---9-9--x--10-10---7-7--x--10-10- |
|  -9-9--x--12-12---7-7--x--10-10---9-9--x--10-10---7-7--x--10-10- |
|  -7-7--x--10-10---5-7--x--12-12---7-7--x--12-12---5-5--x--12-12- |
|  -7-7--x--10-10---5-7--x--12-12---7-7--x--12-12---5-5--x--12-12- |
|  --------------------------------------------------------------- |

If this tab is decent then please rate and if you wanna talk about music or guitars or 
or whatever then contact me on jamesdonaldson@hot-shot.com.

Cheers    

Added On December 12th, 2013

SHARE

Comments

blog comments powered by Disqus