The Kooks Tabs

Seaside

10 versions

TAB

            Seaside Tab by The Kooks


HI THIS IS A GREAT SO TRY IT OUT ITS GOOD
THIS IS A GOOD SONG TO PLAY DO'NT QUESTION THE WAY I PLAY B OR C COZ IT REALLY AFFECTIVE 
YOU PLAY IT LIKE THIS THE KOOKS ARE GREAT.
ANY QUESTIONS--SHARPIEDAN@YAHOO.co.uk

    DO YOU WANT TO GO TO THE SEASIDE
       DM                   F
e|-----1--------------------1--------------------|
B|-----3--------------------1--------------------|
G|-----2--------------------2--------------------|
D|-----0--------------------3--------------------|
A|-----X--------------------3--------------------|
E|-----X--------------------1--------------------|
   IM NOT TRYIN TO SAY THAT EVERYONE WANTS TO GO
    B                                C
e|--7--------------------------------4------------------------|
B|--7--------------------------------6------------------------|
G|--8--------------------------------6------------------------|
D|--9--------------------------------6------------------------|
A|--9--------------------------------4------------------------|
E|--7--------------------------------4------------------------|

 i fell in love at the seaside
       DM               F
e|-----1----------------1--------------------|
B|-----3----------------1--------------------|
G|-----2----------------2--------------------|
D|-----0----------------3--------------------|
A|-----X----------------3--------------------|
E|-----X----------------1--------------------|

   I handle my charm with time and slides of hand
    B                       C                 G         F
e|--7-----------------------4-----------------4-------|
B|--7-----------------------6-----------------4-------|
G|--8-----------------------6-----------------5-------|
D|--9-----------------------6-----------------6-------|
A|--9-----------------------4-----------------6-------|
E|--7-----------------------4-----------------4-------|

    DO YOU WANT TO GO TO THE SEASIDE
       DM                   F
e|-----1--------------------1--------------------|
B|-----3--------------------1--------------------|
G|-----2--------------------2--------------------|
D|-----0--------------------3--------------------|
A|-----X--------------------3--------------------|
E|-----X--------------------1--------------------|
   IM NOT TRYIN TO SAY THAT EVERYONE WANTS TO GO
    B                                C
e|--7--------------------------------4------------------------|
B|--7--------------------------------6------------------------|
G|--8--------------------------------6------------------------|
D|--9--------------------------------6------------------------|
A|--9--------------------------------4------------------------|
E|--7--------------------------------4------------------------|

 i fell in love at the seaside
       DM               F
e|-----1----------------1--------------------|
B|-----3----------------1--------------------|
G|-----2----------------2--------------------|
D|-----0----------------3--------------------|
A|-----X----------------3--------------------|
E|-----X----------------1--------------------|

   I handle my charm with time and slides of hand
    B                       C                 G         F
e|--7-----------------------4-----------------4-------|
B|--7-----------------------6-----------------4-------|
G|--8-----------------------6-----------------5-------|
D|--9-----------------------6-----------------6-------|
A|--9-----------------------4-----------------6-------|
E|--7-----------------------4-----------------4-------|

      BUT IM JUST TRYIN TO LOVE YOU, ANY KIND OF WAY
    DM                 B             C
e|--1------------------7-------------4-------|
B|--3------------------7-------------6-------|
G|--2------------------8-------------6-------|
D|--0------------------9-------------6-------|
A|--X------------------9-------------6-------|
E|--X------------------7-------------4-------|


      But i find it hard to love you girl when your far away ... away
    DM                       B                       C    G
e|--1------------------------7-----------------------4----4---|
B|--3------------------------7-----------------------6----4---|
G|--2------------------------8-----------------------6----5---|
D|--0------------------------9-----------------------6----6---|
A|--X------------------------9-----------------------6----6---|
E|--X------------------------7-----------------------4----4---|

    DO YOU WANT TO GO TO THE SEASIDE
       DM                   F
e|-----1--------------------1--------------------|
B|-----3--------------------1--------------------|
G|-----2--------------------2--------------------|
D|-----0--------------------3--------------------|
A|-----X--------------------3--------------------|
E|-----X--------------------1--------------------|

IM NOT TRYIN TO SAY THAT EVERYONE WANTS TO GO
    B                                C
e|--7--------------------------------4------------------------|
B|--7--------------------------------6------------------------|
G|--8--------------------------------6------------------------|
D|--9--------------------------------6------------------------|
A|--9--------------------------------4------------------------|
E|--7--------------------------------4------------------------|


 i fell in love at the seaside.......ON THE SEASIDE.....ON THE SEASIDE
       DM               F                    F                  F
e|-----1----------------1--------------------1-----------------1------|
B|-----3----------------1--------------------1-----------------1------|
G|-----2----------------2--------------------2-----------------2------|
D|-----0----------------3--------------------3-----------------3------|
A|-----X----------------3--------------------3-----------------3------|
E|-----X----------------1--------------------1-----------------1------|    

Added On December 12th, 2013

SHARE

Comments

blog comments powered by Disqus