The Red Jumpsuit Apparatus Tabs

In Fates Hands Intro

1 versions

TAB

            In Fates Hands Tab by The Red Jumpsuit Apparatus


In Fate's Hands(Ass Shaker)
The Red Jumpsuit Apparatus
Drop D

This is just the intro but im sure its pretty close.
The only thing im not sure about is what the last chord is where it strums fast.

Sorry if its confusing its my first tab.

       Intro
e|-----------------|
B|-----------------|
G|--3\----7--------|
D|--5\----8----6---|
A|--3\----6----6---|
D|-------------6---|
      ^^^
  Listen to the song to hear how to strum and how many times to strum the chords.
  Dont just strum once.
e|---------------------------------------------------------------------|
B|---------------------------------------------------------------------|
G|--3\5555\8/5555/3\5555/3\55\88---------------------------121212121212| 
D|--x-xxxx-x-xxxx-x-xxxx-x-xx-xx--5\66666/5\66666/5\66666--101010101010|
A|--1\3333\6/3333/1\3333/1\33\66--x-xxxxx-x-xxxxx-x-xxxxx--------------|
D|--------------------------------5\66666/5\66666/5\66666--------------|
                                                           ^^^^^^^^^^^^ 
                                                             Not Sure
                                                            About That

 /  slide up
 \  slide down

============================================================================    

Added On December 12th, 2013

SHARE

Comments

blog comments powered by Disqus

ADVERTISEMENT