The Tallest Man On Earth Tabs

It Will Follow The Rain

1 versions

TAB

            This is a revision/correction to the tab with the Sweedish writing in the Misc. bands section.

Tab is relative to CAPO ON 8TH FRET.
These are the four main parts of the song just listen to the track to figure out 
the order in which he plays them.

 e|---------------------3p0---------------------|
Bb|--------------0--------------0---------------|
 G|------0------------0-------------0-----------|
 D|------0---------0---------0------------------|
 G|-0---------0---------0---------0-------------|
 D|------------------------------------3--------|

 e|---------------------1-----------------------|
Bb|--------------0--------------0---------------|
 G|------0------------0-------------0-----------|
 D|------1---------1---------1---------0--------|
 G|-0---------0---------0---------0-------------|
 D|---------------------------------------------|

 e|---------------------0-----------------------|
Bb|--------------0--------------0---------------|
 G|------2------------2-------------2-----------|
 D|------3---------3---------3---------3--------|
 G|---------------------------------------------|
 D|-3---------3---------3---------3-------------|

 e|---------------------0-----------------------|
Bb|--------------0--------------0---------------|
 G|------0------------0-------------0-----------|
 D|------1---------1---------1---------1--------|
 G|---------------------------------------------|
 D|-1---------1---------1---------1-------------|    

Added On December 16th, 2013

SHARE

Comments

blog comments powered by Disqus

ADVERTISEMENT