The View Tabs

Sunday

1 versions

TAB

            -------------------------------------------------------------------------------
			     Sunday - The View
-------------------------------------------------------------------------------
Tabbed by: Ilya Perevalov
Email: ilyaforpeace@yahoo.com

Tuning: Standard
Lead Part goes thought intro and no lyrics parts. (Light palm muting)
e|---------------------------------------------------------------------------|
B|-13------13------13------13------13------13------13------13------15--------|
G|-----12------12------12------12------12------12------12------12------12----|
D|---------------------------------------------------------------------------|
A|---------------------------------------------------------------------------|
E|---------------------------------------------------------------------------|          

e|-13------13------13------13------13------13------13------13------15---------|
B|-----14------14------14------14------14------14------14------14------14----|
G|---------------------------------------------------------------------------|
D|---------------------------------------------------------------------------|
A|---------------------------------------------------------------------------|
E|---------------------------------------------------------------------------|
          Little piano riff in the intro, the notes are just C--C-D-E--F, here's a tab
e|---------------------------------------------------------------------------|
B|---------------------------------------------------------------------------|
G|---------------9~(few times)--------------------9~----10~------------------|
D|--10---10--12----------------(then)10---10--12-----------------------------|
A|---------------------------------------------------------------------------|
E|---------------------------------------------------------------------------|

Chords: C  F  A  G  

Intro: C  F (he plays the 8 fret ones (BARRE))

Verse:
(C)Skip away from a drunken day,(F)& wake me up on Sunday.
(C)Steal away from a drunken night,(F)& wake me up on Sunday.
(C)Thinking back on a hopeless night,(F)& wake me up on Sunday.
(C)I left the pub when we got kicked out,(F)& wake me up on Sunday.

Bridge:
Cause when I(A)feel the need to be(G)thrilled I won't ask(F)you.
Or when I(A)feel the need to be(G)thrilled I won't ask(F)you.

(C)I'm not stealing(F)hope from you x2.

(C)I run away from a broken day, &(F)wake me up on Sunday.
(C)Shift is done & I sing this song,(F)& wake me up on a Sunday.

Cause when I'm(A)looking for something new(G) I won't ask(F)you. x2


(C)I'm not stealing(F)hope from you. x4

(Rhythm Changes) 
(C)take a note of the scenic road, girl 
(C)take a note of the scenic road, girl 
(C)take a note of the scenic road, girl 
(A)jump around, to the stolen,(G)to the stolen(F)sun/sound.
(A)So jump around, to the stolen,(G)to the stolen(F)sun/sound.


(C)I'm not stealing(F)hope from you.
(C)I'm not stealing(F)hope from you.
(Wake me up on a Sunday.) x4


************************************

| /   slide up
| \   slide down
| h   hammer-on
| p   pull-off
| ~   vibrato
| +   harmonic
| x   Mute note
| b   Bend
| pb  Pre-bend
| br  Bend release
| pbr Pre-bend release
| brb Bend release bend

************************************    

Added On December 16th, 2013

SHARE

Comments

blog comments powered by Disqus

ADVERTISEMENT