Therapy Tabs

Rock You Monkeys

3 versions

TAB

            Rock You Monkeys Tab by Therapy


------------------------------------------------------------------
		ROCK YOU MONKEYS - THERAPY?
------------------------------------------------------------------
Tabbed by: cHRIS dAVIES	
Email: weaselthfclcd@yahoo.co.uk





e|-------------------------------------|
B|-------------------------------------|
G|---5-5-5-5-4-------------------------|
D|---5-5-5-5-4--6-6-6-6----------------|x3
A|---3-3-3-3-2--6-6-6-6----------------|
D|--------------4-4-4-4----------------|

then

e|-------------------------------------|
B|-------------------------------------|
G|------3--------6---------------------|
D|--333-3-3--666-6-6-------------------|
A|--333-1-3--666-4-6-------------------|
D|--111---1--444---4-------------------|    

Added On December 12th, 2013

SHARE

Comments

blog comments powered by Disqus

VERSIONS

ADVERTISEMENT