Three Days Grace Tabs

Running Away

1 versions

TAB

            Running Away Tab by Three Days Grace


Artist : Three Days Grace
Song   : Running Away (bonus track)
Album  : One-X
Tuning : Drop D
Tabber : jaames

Strumming patterns are easy to figure out. Once again, I didn't put
very much time into it, so forgive me if there's a few things missing.

Intro/verse Gtr.1 PM (x6)
E|---------------------------------------------------------|
B|---------------------------------------------------------|
G|-------0---------0---------0-------0---------0---------0-|
D|-----2-------2-4-------2-4-------0-------0-4-------0-4---|
A|---2-------2---------2---------0-------0---------0-------|
D|-2-------2---------2---------0-------0---------0---------|

Gtr.2 comes in 2nd time (x4)
E|-0----------0----------0---------0-|-------7--------5-|(x2)
B|-0----------0----------3---------3-|-7--5-----7--3----|
G|-4----------4----------2---------2-|------------------|
D|-2----------2----------0---------0-|------------------|
A|-2----------2----------0---------0-|------------------|
D|-2----------2----------0---------0-|------------------|

Pre-chorus (x1)
E|-0---0---0---0----0---0---0---0-|
B|-0---0---0---0----0---0---0---0-|
G|-5---5---5---5----5---5---5---5-|
D|-3---3---3---3----5---5---5---5-|
A|-3---3---3---3----3---3---3---3-|
D|-3---3---3---3------------------|

Chorus (x1)
E|------------------------------------|
B|------------------------------------|
G|------------------------------------|
D|-x-x--5--0--3--10--x-x--0--8--3--10-|
A|-x-x--5--0--3--10--x-x--0--8--3--10-|
D|-x-x--5--0--3--10--x-x--0--8--3--10-|

Bridge (x3)
E|-----------------------------------------------------------|
B|-----------------------------------------------------------|
G|--------------------------------------6b-------6b-------6v-|
D|-4-4-4--2--0--4-4-4--2--0--4-4--2--0--x---0-0--x---0-0--x--|
A|-4-4-4--2--0--4-4-4--2--0--4-4--2--0--4b--0-0--4b--0-0--4v-|
D|-4-4-4--2--0--4-4-4--2--0--4-4--2--0------0-0------0-0-----|

Outro chorus played several times
E|---------------------------------|
B|---------------------------------|
G|-7---2---5---12---2--10---5---12-|    

Added On December 12th, 2013

SHARE

Comments

blog comments powered by Disqus

ADVERTISEMENT