Thrice Tabs

Stare At The Sun

8 versions

TAB

            Stare At The Sun Tab by Thrice


Song: Stare At The Sun
Album: Artist In The Ambulance
Band: Thrice
Info: There are two guitars in this song, a lead and a rhythm.
I only know the rhythm figures. The tuning will be in drop D[DADGBe]:
Tabber: Sam S. LI, NY

Intro/Verse 1 & 2:
e|------------------------------------------
B|--6~------10~------8~------5~------6~-----
G|--7~------10~------5~------3~------3~-----
D|------------------------------------------
A|------------------------------------------
D|------------------------------------------

Chorus:
e|------------------------------------------
B|------------------------------------------
G|--7----10---------------------------------
D|--7----10----10-----8---------------------
A|--5----8-----10-----8---------------------
D|-------------10-----8---------------------

Bridge [part 1]:
e|------------------------------------------
B|------------------------------------------
G|------------------------------------------
D|--5----8----3----0------------------------
A|--5----8----3----0------------------------
D|--5----8----3----0------------------------

Bridge [part 2]:
e|------------------------------------------
B|------------------------------------------
G|------------------------------------------
D|--5----8----3----7------------------------
A|--5----8----3----7------------------------
D|--5----8----3----7------------------------

Bridge [part 3]:
e|------------------------------------------
B|------------------------------------------
G|------------------------------------------
D|--5----8----3----0----5----8--------------
A|--5----8----3----0----5----8--------------
D|--5----8----3----0----5----8--------------

Outro:
e|------------------------------------------
B|------------------------------------------
G|--7----10----5----3-----------------------
D|--7----10----5----3-----------------------
A|--5----8-----3----1-----------------------
D|------------------------------------------    

Added On December 12th, 2013

SHARE

Comments

blog comments powered by Disqus