Tired Pony Tabs

Wreckage And Bone

1 versions

TAB

            [Intro]
E|--0-------------------------|--------------------------|
B|--------3p0-----------3-----|--------------------------|
G|-----0-------0-----0-----0--|-----0-----0-----0-----0--|
D|----------------------------|--------------------------|
A|--3-----0-------0-----0-----|--3-----3-----3-----3-----|
E|----------------------------|--------------------------| x6

[Verse 1]
E|--0-------------------------|--------------------------|
B|--------3p0-----------3-----|--------------------------|
G|-----0-------0-----0-----0--|-----0-----0-----0-----0--|
D|----------------------------|--------------------------|
A|--3-----0-------0-----0-----|--3-----3-----3-----3-----|
E|----------------------------|--------------------------| x8

I will lay you out along the grass x2
I will hold my breath along with you x2
I will take you out into the surf x2
I will wash the years from both of us x2

[Chorus]
E|--------------------|--------------------|--------------------|--------------------|
B|--------------0-----|--------------0-----|--------------0-----|--------------0-----|
G|--------0--------0--|--------0--------0--|--------0--------0--|--------0--------0--|
D|-----------0--------|-----------0--------|-----------0--------|-----------0--------|
A|--2-----------------|-----3--------------|-----7--------------|--7-----------------|
E|-----3--------------|--1-----------------|--5-----------------|-----8--------------| x4

And it's all in my head, you're gone, you've been gone forever
Is it all in my head, you're here, I can see you clearly
Come to my rescue I am buried alive
Dig with your bare hands through the wreckage and bone

guitar 2:
E|------------|-----------|
B|--5\3/5/8---|--5\3/5\0--|
G|------------|-----------|
D|------------|-----------|
A|------------|-----------|
E|------------|-----------| x1

Guitar 1 comes in on 3rd measure with guitar 2
E|--0-------------------------|--------------------------|
B|--------3p0-----------3-----|--------------------------|
G|-----0-------0-----0-----0--|-----0-----0-----0-----0--|
D|----------------------------|--------------------------|
A|--3-----0-------0-----0-----|--3-----3-----3-----3-----|
E|----------------------------|--------------------------| x1

[Verse 2]
E|--0-------------------------|--------------------------|
B|--------3p0-----------3-----|--------------------------|
G|-----0-------0-----0-----0--|-----0-----0-----0-----0--|
D|----------------------------|--------------------------|
A|--3-----0-------0-----0-----|--3-----3-----3-----3-----|
E|----------------------------|--------------------------| x8

Let me live here with you years ago x2
We can count the days from then to now x2
Let me fight the man who says you're gone x2
Watch me shout the sun out of the sky x2

[Chorus]

[Outro]
E|--0-----------|
B|-----3--0--3--|
G|--------------|
D|--------------|
A|--3--3--3--3--| 
E|--------------| x7 

E|--0-------|
B|-----3b5--|
G|----------|
D|----------|
A|--3-------|
E|----------|

***********************************
| /   Slide up
| \   Slide down
| p   Pull-off
| b   Bend
***********************************    

Added On February 7th, 2017

SHARE

Comments

blog comments powered by Disqus

ADVERTISEMENT