Tokio Hotel Tabs

An Deiner Seite Ich Bin Da

1 versions

TAB

            INTRO
--------------------------------------------------------------------------------------------------|
--------------------------------------------------------------------------------------------------|
--------------------------------------------------------------------------------------------------|
--5--5--5--5--5--5--5----6--6--6--6--6--6--6--6----5--5--5--5--5--5--5----6--6--6--6--6--6--6--6--|
--6--6--6--6--6--6--6----6--6--6--6--6--6--6--6----6--6--6--6--6--6--6----6--6--6--6--6--6--6--6--|
--6--6--6--6--6--6--6----6--6--6--6--6--6--6--6----6--6--6--6--6--6--6----6--6--6--6--6--6--6--6--|

                                        COUPLET 1er
--------------------------------------------------------------------------------------------------|
--------------------------------------------------------------------------------------------------|
--------------------------------------------------------------------------------------------------|
--5--5--5--5--5--5--5----6--6--6--6--6--6--6--6----5--5--5--5--5--5--5----6--6--6--6--6--6--6--6--|
--6--6--6--6--6--6--6----6--6--6--6--6--6--6--6----6--6--6--6--6--6--6----6--6--6--6--6--6--6--6--|
--6--6--6--6--6--6--6----6--6--6--6--6--6--6--6----6--6--6--6--6--6--6----6--6--6--6--6--6--6--6--|


--------------------------------------------------------------------------------------------------|
--------------------------------------------------------------------------------------------------|
--------------------------------------------------------------------------------------------------|
--5--5--5--5--5--5--5----6--6--6--6--6--6--6--6---------------------------------------------------|
--5--5--5--5--5--5--5----6--6--6--6--6--6--6--6---------------------------------------------------|
--3--3--3--3--3--3--3----4--4--4--4--4--4--4--4---------------------------------------------------|


--------------------------------------------------------------------------------------------------|
--------------------------------------------------------------------------------------------------|
--------------------------------------------------------------------------------------------------|
--5--5--5--5--5--5--5----6--6--6--6--6--6--6--6----5--5--5--5--5--5--5----6--6--6--6--6--6--6--6--|
--6--6--6--6--6--6--6----6--6--6--6--6--6--6--6----6--6--6--6--6--6--6----6--6--6--6--6--6--6--6--|
--6--6--6--6--6--6--6----6--6--6--6--6--6--6--6----6--6--6--6--6--6--6----6--6--6--6--6--6--6--6--|


--------------------------------------------------------------------------------------------------|
--------------------------------------------------------------------------------------------------|
--------------------------------------------------------------------------------------------------|
--5--5--5--5--5--5--5----6--6--6--6--6--6--6--6---------------------------------------------------|
--5--5--5--5--5--5--5----6--6--6--6--6--6--6--6---------------------------------------------------|
--3--3--3--3--3--3--3----4--4--4--4--4--4--4--4---------------------------------------------------|


--------------------------------------------------------------------------------------------------|
--------------------------------------------------------------------------------------------------|
--------------------------------------------------------------------------------------------------|
--5--5--5--5--5--5--5----6--6--6--6--6--6--6--6-----8--8--8--8--8--8--8----6--6--6--6--6--6--6--6-|
--6--6--6--6--6--6--6----6--6--6--6--6--6--6--6-----8--8--8--8--8--8--8----6--6--6--6--6--6--6--6-|
--6--6--6--6--6--6--6----6--6--6--6--6--6--6--6-----6--6--6--6--6--6--6----4--4--4--4--4--4--4--4-|


--------------------------------------------------------------------------------------------------|
--------------------------------------------------------------------------------------------------|
--------------------------------------------------------------------------------------------------|
--5--5--5--5--5--5--5----6--6--6--6--6--6--6--6-----8--8--8--8--8--8--8----6----------------------|
--6--6--6--6--6--6--6----6--6--6--6--6--6--6--6-----8--8--8--8--8--8--8----6----------------------|
--6--6--6--6--6--6--6----6--6--6--6--6--6--6--6-----6--6--6--6--6--6--6----4----------------------|

                                   REFRAIN

--------------------------------------------------------------------------------------------------|
--------------------------------------------------------------------------------------------------|
--------------------------------------------------------------------------------------------------|
--5--5--5--5--5--5--5----6--6--6--6--6--6--6--6----5--5--5--5--5--5--5----6--6--6--6--6--6--6--6--|
--6--6--6--6--6--6--6----6--6--6--6--6--6--6--6----6--6--6--6--6--6--6----6--6--6--6--6--6--6--6--|
--6--6--6--6--6--6--6----6--6--6--6--6--6--6--6----6--6--6--6--6--6--6----6--6--6--6--6--6--6--6--|


--------------------------------------------------------------------------------------------------|
--------------------------------------------------------------------------------------------------|
--------------------------------------------------------------------------------------------------|
--10--10--10--10--10--10--10----6--6--6--6--6--6--6--6--------------------------------------------|
--10--10--10--10--10--10--10----6--6--6--6--6--6--6--6--------------------------------------------|
--8--8--8--8--8--8--8--8--8-----4--4--4--4--4--4--4--4--------------------------------------------|


--------------------------------------------------------------------------------------------------|
--------------------------------------------------------------------------------------------------|
--------------------------------------------------------------------------------------------------|
--5--5--5--5--5--5--5----6--6--6--6--6--6--6--6---------------------------------------------------|
--5--5--5--5--5--5--5----6--6--6--6--6--6--6--6---------------------------------------------------|
--3--3--3--3--3--3--3----4--4--4--4--4--4--4--4---------------------------------------------------|


--------------------------------------------------------------------------------------------------|
--------------------------------------------------------------------------------------------------|
--------------------------------------------------------------------------------------------------|
--10--10--10--10--10--10--10----6-----------------------------------------------------------------|
--10--10--10--10--10--10--10----6-----------------------------------------------------------------|
--8--8--8--8--8--8--8--8--8-----4-----------------------------------------------------------------|


Le tout 2 fois    

Added On December 16th, 2013

SHARE

Comments

blog comments powered by Disqus

ADVERTISEMENT