Tokio Hotel Tabs

Beichte

2 versions

TAB

            Beichte Tab by Tokio Hotel


Hi this is my first tab but i was looking for this song every were but its not on eney 
so i tought id put it on lol.
Jus wanna say elo 2 danielle (biggest tokio hotel fan ever lol)
isnt 100% correct but its the closest you will find on the internet lol.

INTRO
E-------------------------------------|
B-------------------------------------|
G--9-9-9-9-9-9-9-9--6-6-6-6-6-6-6-6---|
D--9-9-9-9-9-9-9-9--6-6-6-6-6-6-6-6---|  x8
A--7-7-7-7-7-7-7-7--4-4-4-4-4-4-4-4---|
E-------------------------------------|


VERSE
E--------------------------------     -------------------------------------|
B--------------------------------     -------------------------------------|
G--9-9-9-9-9-9-9-9--6-6-6-6-6----     ---4-4-4-4-4-4-4-4-4-4-4-4-----------|
D--9-9-9-9-9-9-9-9--6-6-6-6-6---- x4  ---4-4-4-4-4-4-4-4-4-4-4-4-----------|
A--7-7-7-7-7-7-7-7--4-4-4-4-4----     ---2-2-2-2-2-2-2-2-2-2-2-2-----------|
E--------------------------------     -------------------------------------|
and then play it again but at the end play this:

E---------------------|
B---------------------|
G--5-5-5-5-5-5-5-5-5--|
D--5-5-5-5-5-5-5-5-5--|
A--3-3-3-3-3-3-3-3-3--|
E---------------------|

CHORUS
E---------------------------------------------|
B---------------------------------------------|
G--9-9-9-9-9--6-6-6-6-6--4-4-4-4-4------------|
D--9-9-9-9-9--6-6-6-6-6--4-4-4-4-4--7-7-7-7-7-|
A--7-7-7-7-7--4-4-4-4-4--2-2-2-2-2--7-7-7-7-7-|
E-----------------------------------4-4-4-4-4-|

E-----------------------------------|
B-----------------------------------|
G--9-9-9-9-9--6-6-6-6-6--4-4-4-4-4--|
D--9-9-9-9-9--6-6-6-6-6--4-4-4-4-4--|
A--7-7-7-7-7--4-4-4-4-4--2-2-2-2-2--|
E-----------------------------------|

VERSE
E--------------------------------     -------------------------------------|
B--------------------------------     -------------------------------------|
G--9-9-9-9-9-9-9-9--6-6-6-6-6----     ---4-4-4-4-4-4-4-4-4-4-4-4-----------|
D--9-9-9-9-9-9-9-9--6-6-6-6-6---- x4  ---4-4-4-4-4-4-4-4-4-4-4-4-----------|
A--7-7-7-7-7-7-7-7--4-4-4-4-4----     ---2-2-2-2-2-2-2-2-2-2-2-2-----------|
E--------------------------------     -------------------------------------|
and then play it again but at the end play this:

E---------------------|
B---------------------|
G--5-5-5-5-5-5-5-5-5--|
D--5-5-5-5-5-5-5-5-5--|
A--3-3-3-3-3-3-3-3-3--|
E---------------------|

CHORUS
E---------------------------------------------|
B---------------------------------------------|
G--9-9-9-9-9--6-6-6-6-6--4-4-4-4-4------------|
D--9-9-9-9-9--6-6-6-6-6--4-4-4-4-4--7-7-7-7-7-|
A--7-7-7-7-7--4-4-4-4-4--2-2-2-2-2--7-7-7-7-7-|
E-----------------------------------4-4-4-4-4-|

E-----------------------------------|
B-----------------------------------|
G--9-9-9-9-9--6-6-6-6-6--4-4-4-4-4--|
D--9-9-9-9-9--6-6-6-6-6--4-4-4-4-4--|
A--7-7-7-7-7--4-4-4-4-4--2-2-2-2-2--|
E-----------------------------------|
Play the whole chorus twice

BRIGDE
E--------------------------------------------------|
B--------------------------------------------------|
G--4-4-4-------------------------------------------|
D--4-4-4-------------------------------------------|
A--2-2-2-------------------------------------------|
E--------------------------------------------------|

listen to the song and work out how meny times you have to repet it becouse its loads of 
and i cant write it all lol.
E--------------------------------------------------|
B--------------------------------------------------|
G--6-6-6-6-6--8-8-8-8-8--11-11-11-11-11-9-9-9-9-9--|
D--6-6-6-6-6--8-8-8-8-8--11-11-11-11-11-9-9-9-9-9--|
A--4-4-4-4-4--6-6-6-6-6--9--9--9--9--9--7-7-7-7-7--|
E--------------------------------------------------|

E---------------------------------------|
B---------------------------------------|
G--6-6-6-6-6--8-8-8-8-8--11-11-11-11-11-|
D--6-6-6-6-6--8-8-8-8-8--11-11-11-11-11-|
A--4-4-4-4-4--6-6-6-6-6--9--9--9--9--9--|
E---------------------------------------|

CHORUS
E---------------------------------------------|
B---------------------------------------------|
G--9-9-9-9-9--6-6-6-6-6--4-4-4-4-4------------|
D--9-9-9-9-9--6-6-6-6-6--4-4-4-4-4--7-7-7-7-7-|
A--7-7-7-7-7--4-4-4-4-4--2-2-2-2-2--7-7-7-7-7-|
E-----------------------------------4-4-4-4-4-|

E-----------------------------------|
B-----------------------------------|
G--9-9-9-9-9--6-6-6-6-6--4-4-4-4-4--|
D--9-9-9-9-9--6-6-6-6-6--4-4-4-4-4--|
A--7-7-7-7-7--4-4-4-4-4--2-2-2-2-2--|
E-----------------------------------|
Play the whole chorus 3 times

right thats it, not 100% correct but its the best you will find lol. bibi

charlie! p.s elo danielle again hehe    

Added On December 12th, 2013

SHARE

Comments

blog comments powered by Disqus

VERSIONS

ADVERTISEMENT