Tokio Hotel Tabs

Phantomrider

2 versions

TAB

            Intro
E|------------------------------------------|
B|------------------------------------------|
G|------------------------------------------|
D|-2-----2-----2---3-----3-----3------------|  X2
A|-0-0-0-0-0-0-0-0-1-1-1-1-1-1-1-1----------|
E|------------------------------------------|

		Verse 1
E|----------------------------------------------|
B|----------------------------------------------|
G|----------------------------------------------|   X3
D|-2-----2-----2---3-----3-----3----------------|
A|-0-0-0-0-0-0-0-0-1-1-1-1-1-1-1-(0)------------|
E|----------------------------------------------|
   GAS   	&	 BLOOD
 IS 	ALL 	I’VE	  GOT
IN YOU 	I  		TRUST

E|-----------------------------------------|
B|-----------------------------------------|
G|-----------------------------------------| 	  X1
D|-----------------------------------------|
A|-3-----3-----3---3-----3-----3-----------|
E|-1-1-1-1-1-1-1-1-0-0-0-0-0-0-0-0---------|
THE FINAL EXIT’S PASSIN’ BY


E|------------------------------------------|
B|------------------------------------------|
G|------------------------------------------|
D|-2-----2-----2---3-----3-----3------------|    X3
A|-0-0-0-0-0-0-0-0-1-1-1-1-1-1-1-0----------|
E|------------------------------------------|
THE 	WHEELS		 RUN	 FREE
	UNDERRRRRRRRRR 		ME
IT’S YOU 	I 	FEEL

E|-----------------------------------------|
B|-----------------------------------------|
G|-----------------------------------------|
D|-----------------------------------------|
A|-3-----3-----3---3-----3-----3-----------|
E|-1-1-1-1-1-1-1-1-0-0-0-0-0-0-0-0---------|
A MILLION SPARKS ARE FALLIN’ DOWN

E|------------------------------------------|
B|------------------------------------------|
G|------------------------------------------|
D|-2-----2-----2---3-----3-----3------------|
A|-0-0-0-0-0-0-0-0-1-1-1-1-1-1-1------------|
E|------------------------------------------|
	I TURN THE WHEEL AROUND


	C
C
e |---|---|-x-|---|---|
B |-x-|---|---|---|---|
G |---|---|---|---|---|
D |---|-x-|---|---|---|
A |---|---|-x-|---|---|
E |---|---|---|---|---|
Kiss me goodbye GM
GM
e |---|---|-x-|---|---|
B |---|---|-x-|---|---|
G |---|---|-x-|---|---|
D |---|---|---|---|-x-|
A |---|---|---|---|-x-|
E |---|---|-x-|---|---|
Into the light B
B
e |---|-x-|---|---|---|
B |---|---|---|-x-|---|
G |---|---|---|-x-|---|
D |---|---|---|-x-|---|
A |---|-x-|---|---|---|
E |---|-x-|---|---|---|
Like a phantom rider F
F
e |-x-|---|---|---|---|
B |-x-|---|---|---|---|
G |---|-x-|---|---|---|
D |---|---|-x-|---|---|
A |---|---|-x-|---|---|
E |-x-|---|---|---|---|
I'm dying tonight C
C
e |---|---|-x-|---|---|
B |-x-|---|---|---|---|
G |---|---|---|---|---|
D |---|-x-|---|---|---|
A |---|---|-x-|---|---|
E |---|---|---|---|---|
So dark and cold GM
GM
e |---|---|-x-|---|---|
B |---|---|-x-|---|---|
G |---|---|-x-|---|---|
D |---|---|---|---|-x-|
A |---|---|---|---|-x-|
E |---|---|-x-|---|---|
I drive alone B
B
e |---|-x-|---|---|---|
B |---|---|---|-x-|---|
G |---|---|---|-x-|---|
D |---|---|---|-x-|---|
A |---|-x-|---|---|---|
E |---|-x-|---|---|---|
Like a phantom rider F
F
e |-x-|---|---|---|---|
B |-x-|---|---|---|---|
G |---|-x-|---|---|---|
D |---|---|-x-|---|---|
A |---|---|-x-|---|---|
E |-x-|---|---|---|---|
can't make it all on my own Verse 2 E|----------------------------------------------| B|----------------------------------------------| G|----------------------------------------------| X3 D|-2-----2-----2---3-----3-----3----------------| A|-0-0-0-0-0-0-0-0-1-1-1-1-1-1-1-(0)------------| E|----------------------------------------------| PROMISES I SCRATCHED SO DEEP IN YOUR EMPTY SEAT E|-----------------------------------------| B|-----------------------------------------| G|-----------------------------------------| X1 D|-----------------------------------------| A|-3-----3-----3---3-----3-----3-----------| E|-1-1-1-1-1-1-1-1-0-0-0-0-0-0-0-0---------| THE SKY IS TURNIN’ UPSIDE DOWN E|------------------------------------------| B|------------------------------------------| G|------------------------------------------| D|-2-----2-----2---3-----3-----3------------| X1 A|-0-0-0-0-0-0-0-0-1-1-1-1-1-1-1-0----------| E|------------------------------------------| I TURN THE WHEEL AROUND C
C
e |---|---|-x-|---|---|
B |-x-|---|---|---|---|
G |---|---|---|---|---|
D |---|-x-|---|---|---|
A |---|---|-x-|---|---|
E |---|---|---|---|---|
Kiss me goodbye GM
GM
e |---|---|-x-|---|---|
B |---|---|-x-|---|---|
G |---|---|-x-|---|---|
D |---|---|---|---|-x-|
A |---|---|---|---|-x-|
E |---|---|-x-|---|---|
Into the light B
B
e |---|-x-|---|---|---|
B |---|---|---|-x-|---|
G |---|---|---|-x-|---|
D |---|---|---|-x-|---|
A |---|-x-|---|---|---|
E |---|-x-|---|---|---|
Like a phantom rider F
F
e |-x-|---|---|---|---|
B |-x-|---|---|---|---|
G |---|-x-|---|---|---|
D |---|---|-x-|---|---|
A |---|---|-x-|---|---|
E |-x-|---|---|---|---|
I'm dying tonight C
C
e |---|---|-x-|---|---|
B |-x-|---|---|---|---|
G |---|---|---|---|---|
D |---|-x-|---|---|---|
A |---|---|-x-|---|---|
E |---|---|---|---|---|
So dark and cold GM
GM
e |---|---|-x-|---|---|
B |---|---|-x-|---|---|
G |---|---|-x-|---|---|
D |---|---|---|---|-x-|
A |---|---|---|---|-x-|
E |---|---|-x-|---|---|
I drive alone B
B
e |---|-x-|---|---|---|
B |---|---|---|-x-|---|
G |---|---|---|-x-|---|
D |---|---|---|-x-|---|
A |---|-x-|---|---|---|
E |---|-x-|---|---|---|
Like a phantom rider F
F
e |-x-|---|---|---|---|
B |-x-|---|---|---|---|
G |---|-x-|---|---|---|
D |---|---|-x-|---|---|
A |---|---|-x-|---|---|
E |-x-|---|---|---|---|
can't make it all on my own E|-------------10---8---------------------10---8-------------------| B|-6-5-8-6-5-6----6---6-5-6---6-5-8-6-5-6----6---6-5-6-------------| G|-----------------------------------------------------------------| D|-----------------------------------------------------------------| X2 A|-----------------------------------------------------------------| E|-----------------------------------------------------------------| E|-------------10---8---------------------10---8-------------------| B|-6-5-8-6-5-6----6---6-5-6---6-5-8-6-5-6----6---6-5-6-------------| G|-----------------------------------------------------------------| D|-----------------------------------------------------------------| X2 A|-----------------------------------------------------------------| E|-----------------------------------------------------------------| DON’T KNOW YOUR NAME I STILL BELIEVE NOW IT’S TIME FOR YOU & ME TIME FOR YOU & ME E|---------------------------------------------------------------| B|--5--/1---5---/1------------5--/1--5--/1-----------------------| G|-------------------2----3-----------------2---3~---------------| D|---------------------3----3-----------------3------------------| A|---------------------------------------------------------------| E|---------------------------------------------------------------| AM
AM
e |---|---|---|---|---|
B |-x-|---|---|---|---|
G |---|-x-|---|---|---|
D |---|-x-|---|---|---|
A |---|---|---|---|---|
E |---|---|---|---|---|
B
B
e |---|-x-|---|---|---|
B |---|---|---|-x-|---|
G |---|---|---|-x-|---|
D |---|---|---|-x-|---|
A |---|-x-|---|---|---|
E |---|-x-|---|---|---|
Now I’m Here AM
AM
e |---|---|---|---|---|
B |-x-|---|---|---|---|
G |---|-x-|---|---|---|
D |---|-x-|---|---|---|
A |---|---|---|---|---|
E |---|---|---|---|---|
B
B
e |---|-x-|---|---|---|
B |---|---|---|-x-|---|
G |---|---|---|-x-|---|
D |---|---|---|-x-|---|
A |---|-x-|---|---|---|
E |---|-x-|---|---|---|
No More Fears F
F
e |-x-|---|---|---|---|
B |-x-|---|---|---|---|
G |---|-x-|---|---|---|
D |---|---|-x-|---|---|
A |---|---|-x-|---|---|
E |-x-|---|---|---|---|
Angel, don't you cry AM
AM
e |---|---|---|---|---|
B |-x-|---|---|---|---|
G |---|-x-|---|---|---|
D |---|-x-|---|---|---|
A |---|---|---|---|---|
E |---|---|---|---|---|
B
B
e |---|-x-|---|---|---|
B |---|---|---|-x-|---|
G |---|---|---|-x-|---|
D |---|---|---|-x-|---|
A |---|-x-|---|---|---|
E |---|-x-|---|---|---|
I'll meet you on the other side C
C
e |---|---|-x-|---|---|
B |-x-|---|---|---|---|
G |---|---|---|---|---|
D |---|-x-|---|---|---|
A |---|---|-x-|---|---|
E |---|---|---|---|---|
Goodbye GM
GM
e |---|---|-x-|---|---|
B |---|---|-x-|---|---|
G |---|---|-x-|---|---|
D |---|---|---|---|-x-|
A |---|---|---|---|-x-|
E |---|---|-x-|---|---|
Into the light B
B
e |---|-x-|---|---|---|
B |---|---|---|-x-|---|
G |---|---|---|-x-|---|
D |---|---|---|-x-|---|
A |---|-x-|---|---|---|
E |---|-x-|---|---|---|
Like a phantom rider F
F
e |-x-|---|---|---|---|
B |-x-|---|---|---|---|
G |---|-x-|---|---|---|
D |---|---|-x-|---|---|
A |---|---|-x-|---|---|
E |-x-|---|---|---|---|
I'm dying tonight C
C
e |---|---|-x-|---|---|
B |-x-|---|---|---|---|
G |---|---|---|---|---|
D |---|-x-|---|---|---|
A |---|---|-x-|---|---|
E |---|---|---|---|---|
So dark and cold GM
GM
e |---|---|-x-|---|---|
B |---|---|-x-|---|---|
G |---|---|-x-|---|---|
D |---|---|---|---|-x-|
A |---|---|---|---|-x-|
E |---|---|-x-|---|---|
I drive alone B
B
e |---|-x-|---|---|---|
B |---|---|---|-x-|---|
G |---|---|---|-x-|---|
D |---|---|---|-x-|---|
A |---|-x-|---|---|---|
E |---|-x-|---|---|---|
Like a phantom rider F
F
e |-x-|---|---|---|---|
B |-x-|---|---|---|---|
G |---|-x-|---|---|---|
D |---|---|-x-|---|---|
A |---|---|-x-|---|---|
E |-x-|---|---|---|---|
Can't make it all on my own C
C
e |---|---|-x-|---|---|
B |-x-|---|---|---|---|
G |---|---|---|---|---|
D |---|-x-|---|---|---|
A |---|---|-x-|---|---|
E |---|---|---|---|---|
GM
GM
e |---|---|-x-|---|---|
B |---|---|-x-|---|---|
G |---|---|-x-|---|---|
D |---|---|---|---|-x-|
A |---|---|---|---|-x-|
E |---|---|-x-|---|---|
Hey! I'm here B
B
e |---|-x-|---|---|---|
B |---|---|---|-x-|---|
G |---|---|---|-x-|---|
D |---|---|---|-x-|---|
A |---|-x-|---|---|---|
E |---|-x-|---|---|---|
With you F
F
e |-x-|---|---|---|---|
B |-x-|---|---|---|---|
G |---|-x-|---|---|---|
D |---|---|-x-|---|---|
A |---|---|-x-|---|---|
E |-x-|---|---|---|---|
I am here, here C
C
e |---|---|-x-|---|---|
B |-x-|---|---|---|---|
G |---|---|---|---|---|
D |---|-x-|---|---|---|
A |---|---|-x-|---|---|
E |---|---|---|---|---|
Leave me alone B
B
e |---|-x-|---|---|---|
B |---|---|---|-x-|---|
G |---|---|---|-x-|---|
D |---|---|---|-x-|---|
A |---|-x-|---|---|---|
E |---|-x-|---|---|---|
Phantom rider F
F
e |-x-|---|---|---|---|
B |-x-|---|---|---|---|
G |---|-x-|---|---|---|
D |---|---|-x-|---|---|
A |---|---|-x-|---|---|
E |-x-|---|---|---|---|
Always die on their own C (3rd Fret) ---x--------------| ------x-----------| ------x-----------| ------x-----------| ---x--------------| xxxxxxxxxxxxxxxxxx GM (3rd Fret) --x---------------| --x---------------| --x---------------| -----x------------| -----x------------| --x---------------| B (1st Fret) ---x--------------| ------x-----------| ------x-----------| ------x-----------| ---x--------------| xxxxxxxxxxxxxxxxxx F (1st Fret) -x----------------| -x----------------| ---x--------------| -----x------------| -----x------------| -x----------------|

Added On December 16th, 2013

SHARE

Comments

blog comments powered by Disqus

VERSIONS

ADVERTISEMENT