Tokio Hotel Tabs

Spring Nicht

5 versions

TAB

            i didn't know the name of all
the chords so i just wrote
it like this =)good luck =)


Intro:
--------4----------2-----------0-----------------------------|
-----------5----------4-----------2---------4--0--2----------|
--------------------------------------------------2----------|
--------------------------------------------------2----------|
--4----------------------------------------------------------|
-------------------------------------------------------------|

Verse:
Uber den Dachern,ist es so kalt, und so still...
------------------------------------------------------------------|
--------5-----------5----------2-----------2----------------------|
------6---6-------6---6------2---2-------2---2---------------- ---|4x
----6-------6---6-------6---2-------2---2-------2-----------------|
--4-----------4-----------0-----------0---------------------------|
------------------------------------------------------------------|

Chorus:
Ich schrei in die Nacht für dich,lass mich nicht im Stich...
------------------------------------------------------------|
--------2-----------4-----------5-----------5---------------|
------2---2-------4---4-------6---6-------6---6-------------|  {2x
----2-------2---4-------4---6-------6---6-------6-----------|
--0-----------2-----------4-----------4---------------------|
------------------------------------------------------------|

Erinner Dich, an Dich und mich...
------------------------------------------------------------|
--------2-----------4-----------------------2---------------|
------2---2-------4---4---------2---------2---2-------------|
----2-------2---4-------4-----4---4-----2-------2-----------|
--0-----------2-------------4---------0---------------------|
--------------------------2----------4----------------------|

bitte, spring nicht...
--0---------------------------------------------------------|
--4----------5-----------5-----------2-----------2----------|
--4--------6---6-------6---6-------2---2-------2---2--------|
--4------6-------6---6-------6---2-------2---2-------2------|
--2----4-----------4-----------0-----------0----------------|
--0---------------------------------------------------------|

etc...

This is the most beautiful
song in the world, and I really
hope that Tokio Hotel arecoming
to Norway sometime! =)
Enjoy!    

Added On December 16th, 2013

SHARE

Comments

blog comments powered by Disqus

VERSIONS

ADVERTISEMENT