Tokio Hotel Tabs

Totgeliebt

3 versions

TAB

            Artist: Tokio Hotel
Song: Love is dead - Totgeliebt
Album: Scream - Zimmer 483
Tabs by: kia


Verse:

[I hold your letter..]

(Guitar 1)
|------|
|------|
|------|
|------|
|-6--7-|
|-4--4-| x3

[With every word..]

(Guitar 1)
|------|    |------|
|------|    |------|
|------|    |-4--3-|
|------|    |-4--3-|
|-6--7-|    |-2--1-|
|-4--4-| x3 |------|

(Guitar 2)
|----7--7-6-|----7--7-6-|    |----7--7-6-|
|-4---------|-5---------|    |-4---------|
|-----------|-----------|    |-----------|
|-----------|-----------|    |-----------|
|-----------|-----------|    |-----------|
|-----------|-----------| x3 |-----------|

Chorus:

[We die when love is dead..]

(Guitar 1)
|------------|
|------------|
|----9--4--3-|
|-6--9--4--3-|
|-6--7--2--1-|
|-4----------| x4

(Guitar 2) - (Durante il 3° e il 4° accordo della 1a chitarra)
|-7--7-9-7-6-|--7--6--4-|
|------------|----------|
|------------|----------|
|------------|----------|
|------------|----------|
|------------|----------| x4

Verse:


[Vultures are waiting..]

(Guitar 1)
|------|    |------|
|------|    |------|
|------|    |-4--3-|
|------|    |-4--3-|
|-6--7-|    |-2--1-|
|-4--4-| x6 |------|

(Guitar 2)
|----7--7-6-|----7--7-6-|    |----7--7-6-|
|-4---------|-5---------|    |-4---------|
|-----------|-----------|    |-----------|
|-----------|-----------|    |-----------|
|-----------|-----------|    |-----------|
|-----------|-----------| x6 |-----------|

Chorus:

[We die when love is dead..]

(Guitar 1)
|------------|
|------------|
|----9--4--3-|
|-6--9--4--3-|
|-6--7--2--1-|
|-4----------| x4

(Guitar 2) - (Durante il 3° e il 4° accordo della 1a chitarra)
|-7--7-9-7-6-|--7--6--4-|
|------------|----------|
|------------|----------|
|------------|----------|
|------------|----------|
|------------|----------| x4

[It's over now..]


(Guitar 1)
|------|
|------|
|-3--4-|
|-3--4-|
|-1--2-|
|------|

(Guitar 2)
|------|
|------|
|------|
|------|
|-1--2-|
|------|

Interlude:

[2.16]

(Guitar 2)
|-------|    |-2------|
|-----0-|    |---3-1--|
|---3---|    |--------|
|-1-----|    |--------|
|-------|    |--------|
|-------| x2 |--------|


[Vultures are waiting..]

(Guitar 1)
|------|    |------|
|------|    |------|
|------|    |-4--3-|
|------|    |-4--3-|
|-6--7-|    |-2--1-|
|-4--4-| x3 |------|

Chorus:

[We die when love is dead..]

(Guitar 1)
|------------|
|------------|
|----9--4--3-|
|-6--9--4--3-|
|-6--7--2--1-|
|-4----------| x4

(Guitar 2) - (Durante il 3° e il 4° accordo della 1a chitarra)
|-7--7-9-7-6-|--7--6--4-|
|------------|----------|
|------------|----------|
|------------|----------|
|------------|----------|
|------------|----------| x4

[It's over now...]

(Guitar 1)
|---| 
|---|
|-3-|
|-3-|
|-1-|
|---|

[3.25]      END ON:

|--------|  |----|
|--------|  |----|
|-13--12-|  |-13-|
|--------|  |----|
|-11--10-|  |-11-|
|--------|  |----|

(Guitar 2)  END ON:
|---|       |---|
|---|       |---|
|-3-|       |---|
|-3-|       |-6-|
|-1-|       |-6-|
|---|       |-4-|

Baci - kia - se ve serve qlks -> chiara.azzini@hotmail.it - ROCK ON!    

Added On December 16th, 2013

SHARE

Comments

blog comments powered by Disqus

VERSIONS

ADVERTISEMENT