Trans-siberian Orchestra Tabs

What Good This Deafness

1 versions

TAB

            What Good This Deafness Tab by Trans-siberian Orchestra


What Good This Deafness, #4 Beethoven CD
Standard Tuning
E---------|
B---------|
G-5---5---|
D-5-6-5-2-|
A-3-6-3-2-|
E---4---0-|
(.23)[played soft] Repeated 4x's
E-------------------|
B-------------------|
G-55----------------|
D-55-66-22----------|
A----66-22[2222222--|
E-------------------|
  ****************
(.39)
E---------------------------------|
B---------------------------------|
G-55----------------------------5-|
D-55-66-22-33-22-33-22-33-22-33-5-|
A----66-22-33-22-33-22-33-22-33-3-|
E---------------------------------|
  *****************************
[played soft] 4x's
E-------------------|
B-------------------|
G-55----------------|
D-55-66-22----------|
A----66-22[2222222--|
E-------------------|
  ****************
(1.08)
E---------------------------------|
B---------------------------------|
G-55----------------------------5-|
D-55-66-22-33-22-33-22-33-22-33-5-|
A----66-22-33-22-33-22-33-22-33-3-|
E---------------------------------|
  *****************************
(1.23)
E----------------------------|
B-1--------------------------|
G-0-1----Repeated------------|
D---1-2—-8x's------5-5-5-5-5-|
A-----2------------3-3-3-3-3-|
E----------------------------|
  *****

*=Palm Mute

-End    

Added On December 12th, 2013

SHARE

Comments

blog comments powered by Disqus

ADVERTISEMENT