Trews Tabs

Black Halo

1 versions

TAB

            Black Halo Tab by Trews



Intro/Bridge pt.1
e|----------------------------------------|
b|----------------------------------------|
g|------------------8-9-12-12-9-12-12-9-12|
d|8-11-11-8-11-8-11-----------------------|
a|----------------------------------------|
E|----------------------------------------|

Verse
e|------------------|
b|------------------|
g|6-6------------4-4|
d|6-6--6-6--2-2--4-4|
a|4-4--6-6--2-2--2-2|
E|-----4-4--0-0-----|

Chorus
e|-----------------------|
b|-----------------------|
g|6-6-6-------------4-4-4|
d|6-6-6-6-6-6-2-2-2-4-4-4|
a|4-4-4-6-6-6-2-2-2-2-2-2|
E|------4-4-4-0-0-0------|

(Intro/Bridge)

Bridge pt.2
e|-------------------------|
b|-------------------------|
g|-------------------------|
d|------------5-6-5-6-5-6-5|
a|4-4-4-4-4-4-4-4-4-4-4-4-4|
E|-------------------------|

You should be able to figure out the order.    

Added On December 12th, 2013

SHARE

Comments

blog comments powered by Disqus

ADVERTISEMENT