Turbonegro Tabs

Welcome To The Garbage Dump

1 versions

TAB

            Turbonegro - Welcome To The Garbage Dump

Album: Retox
Instrument: Guitar
Tuning: eBGDAE

Tabbed By: Rolf Oslo


Intro / Verse

e||------------------|
B||------------------|
G||-9---4----7---6---|
D||-9---4----7---6---|
A||-7---2----5---4---|
E||------------------| x4

e||--------------------|
B||--------------------|
G||-9---4----12---11---|
D||-9---4----12---11---|
A||-7---2----10---9----|
E||--------------------| x2

Chorus

e||---------------------------------|
B||---------------------------------|
G||-4-4--6--6--7--7--12-12--11------|
D||-4-4--6--6--7--7--12-12--11------|
A||-2-2--4--4--5--5--10-10--9-(16x)-|
E||---------------------------------| x2


Verse

e||--------------------|
B||--------------------|
G||-9---4----12---11---|
D||-9---4----12---11---|
A||-7---2----10---9----|
E||--------------------| x4

Chorus

e||---------------------------------|
B||---------------------------------|
G||-4-4--6--6--7--7--12-12--11------|
D||-4-4--6--6--7--7--12-12--11------|
A||-2-2--4--4--5--5--10-10--9-(16x)-|
E||---------------------------------| x4



e||--------------------------------------------------------------------|
B||--------------------------------------------------------------------|
G||-10--7-7-7-7-7-7-7-7-7-7-7-7-7-10--10-------------------------------|
D||-10--7-7-7-7-7-7-7-7-7-7-7-7-7-10--10-9-9-9-9-9-9-9-9-9-9-9-9-9-9-9-|
A||-8---5-5-5-5-5-5-5-5-5-5-5-5-5-8---8--9-9-9-9-9-9-9-9-9-9-9-9-9-9-9-|
E||--------------------------------------7-7-7-7-7-7-7-7-7-7-7-7-7-7-7-| x3

e||---------------------------------|
B||---------------------------------|
G||---------------------------------|
D||-5-5-5-5-7-7-7-7-9-9-9-9-9-9-9-9-|
A||-5-5-5-5-7-7-7-7-9-9-9-9-9-9-9-9-| 
E||-3-3-3-3-5-5-5-5-7-7-7-7-7-7-7-7-| x8    

Added On December 16th, 2013

SHARE

Comments

blog comments powered by Disqus

ADVERTISEMENT