Turbonegro Tabs

You Must Bleed All Night Long

1 versions

TAB

            Turbonegro - You Must Bleed/All Night Long

Album: Retox
Instrument: Guitar
Tuning: eBGDAE

Tabbed By: Rolf Oslo


Intro

e||------------------------------|------------------------------|
B||------------------------------|------------------------------|
G||-----------------------7--7---|-----------------9-10-9-7--5--|
D||-----------------------7--7---|-----------------9-10-9-7--5--|
A||-----------------------5--5---|-----------------7-8--7-5--3--|
E||-0-0-0-0-0-0-0-0-0-3-0--------|-0-0-0-0-0-0-0-0--------------| x2
pm  * * * * * * * * * * *          * * * * * * * *


Verse

e||------------------------------|------------------------------|
B||------------------------------|------------------------------|
G||-9-9-9-9-9-9-9-9-9-12-9-7--7--|-9-9-9-9-9-9-9-9-9-10-9-7--5--|
D||-9-9-9-9-9-9-9-9-9-12-9-7--7--|-9-9-9-9-9-9-9-9-9-10-9-7--5--|
A||-7-7-7-7-7-7-7-7-7-10-7-5--5--|-7-7-7-7-7-7-7-7-7-8--7-5--3--|
E||------------------------------|------------------------------| x2


Pre-Chorus

e||---------------------------------|------------------------|
B||---------------------------------|------------------------|
G||-4-4-4-6-7-7-7-7-9-9-9-9-7-7-7-7-|-4-4-4-6-7-7-7-7--------|
D||-4-4-4-6-7-7-7-7-9-9-9-9-7-7-7-7-|-4-4-4-6-7-7-7-7-7------|
A||-2-2-2-4-5-5-5-5-7-7-7-7-5-5-5-5-|-2-2-2-4-5-5-5-5-7------|
E||---------------------------------|-----------------5------|

e||----------------------------------------------------------|
B||----------------------------------------------------------|
G||-7--7--7------10-10-10-----15--15--15-----12--12--12--12--|
D||-7--7--7------10-10-10-----15--15--15-----12--12--12--12--|
A||-5--5--5------8--8--8------13--13--13-----10--10--10--10--|
E||----------------------------------------------------------|


Chorus

e||------------------------------------------------------------------|
B||------------------------------------------------------------------|
G||-1010101010101010-9-9-9-9-8-8-8-8-7-7-7-7-7-7-7-7-7-7-7-7-7-7-7-7-|
D||-1010101010101010-9-9-9-9-8-8-8-8-7-7-7-7-7-7-7-7-7-7-7-7-7-7-7-7-|
A||-8-8-8-8-8-8-8-8--7-7-7-7-6-6-6-6-5-5-5-5-5-5-5-5-5-5-5-5-5-5-5-5-|
E||------------------------------------------------------------------|

e||----------------------------------------------------------------|
B||----------------------------------------------------------------|
G||-1010101010101010-9-9-9-9-8-8-8-8-------------------------------|
D||-1010101010101010-9-9-9-9-8-8-8-8-------------------------------|
A||-8-8-8-8-8-8-8-8--7-7-7-7-6-6-6-6--5--3-5--3-5--3-5--3-5b(6)-3--|
E||----------------------------------------------------------------|



e||------------------------------|------------------------------|
B||------------------------------|------------------------------|
G||-----------------------7--7---|-----------------9-10-9-7--5--|
D||-----------------------7--7---|-----------------9-10-9-7--5--|
A||-----------------------5--5---|-----------------7-8--7-5--3--|
E||-0-0-0-0-0-0-0-0-0-3-0--------|-0-0-0-0-0-0-0-0--------------| x2
pm  * * * * * * * * * * *          * * * * * * * *


Verse

e||------------------------------|------------------------------|
B||------------------------------|------------------------------|
G||-9-9-9-9-9-9-9-9-9-12-9-7--7--|-9-9-9-9-9-9-9-9-9-10-9-7--5--|
D||-9-9-9-9-9-9-9-9-9-12-9-7--7--|-9-9-9-9-9-9-9-9-9-10-9-7--5--|
A||-7-7-7-7-7-7-7-7-7-10-7-5--5--|-7-7-7-7-7-7-7-7-7-8--7-5--3--|
E||------------------------------|------------------------------| x2


Pre-Chorus

e||---------------------------------|------------------------|
B||---------------------------------|------------------------|
G||-4-4-4-6-7-7-7-7-9-9-9-9-7-7-7-7-|-4-4-4-6-7-7-7-7--------|
D||-4-4-4-6-7-7-7-7-9-9-9-9-7-7-7-7-|-4-4-4-6-7-7-7-7-7------|
A||-2-2-2-4-5-5-5-5-7-7-7-7-5-5-5-5-|-2-2-2-4-5-5-5-5-7------|
E||---------------------------------|-----------------5------|

e||----------------------------------------------------------|
B||----------------------------------------------------------|
G||-7--7--7------10-10-10-----15--15--15-----12--12--12--12--|
D||-7--7--7------10-10-10-----15--15--15-----12--12--12--12--|
A||-5--5--5------8--8--8------13--13--13-----10--10--10--10--|
E||----------------------------------------------------------|


Chorus

e||------------------------------------------------------------------|
B||------------------------------------------------------------------|
G||-1010101010101010-9-9-9-9-8-8-8-8-7-7-7-7-7-7-7-7-7-7-7-7-7-7-7-7-|
D||-1010101010101010-9-9-9-9-8-8-8-8-7-7-7-7-7-7-7-7-7-7-7-7-7-7-7-7-|
A||-8-8-8-8-8-8-8-8--7-7-7-7-6-6-6-6-5-5-5-5-5-5-5-5-5-5-5-5-5-5-5-5-|
E||------------------------------------------------------------------| x3

e||----------------------------|
B||----------------------------|
G||-1010101010101010-9----8----|
D||-1010101010101010-9----8----|
A||-8-8-8-8-8-8-8-8--7----6----|
E||----------------------------|


Outro

e||-------------------------|
B||-------------------------|
G||-7---7-7-7----10----5----|
D||-7---7-7-7----10----5----|
A||-5---5-5-5----8-----3----|
E||-------------------------| x4

e||----------------------------------|
B||----------------------------------|
G||-7-7-7-7-7-7-7-7-10101010-5-5-5-5-|
D||-7-7-7-7-7-7-7-7-10101010-5-5-5-5-|
A||-5-5-5-5-5-5-5-5-8-8-8-8--3-3-3-3-|
E||----------------------------------| x3

e||-----------------------------|-----------------------|
B||-----------------------------|-----------------------|
G||-----------------------------|-----------------------|
D||-----------------------------|-----------------------|
A||-5--3-5--3-5--3-5--3-5b(6)-3-|-5--3-5--3-5--3-5--3-5-|
E||-----------------------------|-----------------------|    

Added On December 16th, 2013

SHARE

Comments

blog comments powered by Disqus

ADVERTISEMENT