Tyler Ward Tabs

Teenage Dream Katy Perry

1 versions

TAB

            Artist   : Tyler Ward
Song     : Teenage Dream (Katy Perry)
Tuning   : D-A-D-F#-A-D
Capo     : 1

Verse: Muted
D |----------|
A |-(4)-(4)--|
F#|----------|
D |--0---2---|
A |--0---2---|
D |--0---2---|

Chorus/Bridge:
D |-----------------|
A |-----------------|
F#|-----------------|
D |--0--xx--0-4-22--|
A |--0--xx--0-4-22--|
D |--0--xx--0-4-22--|

End Chord:
D |-----|
A |-----|
F#|-----|
D |--0--|
A |--0--|
D |--0--|

Verse   - 12x
Chorus  - 8x
Verse   - 8x
Chorus  - 8x
Bridge  - 4x    

Added On December 16th, 2013

SHARE

Comments

blog comments powered by Disqus

ADVERTISEMENT