Underoath Tabs

Moving For The Sake Of Motion

5 versions

TAB

            Moving For The Sake Of Motion Tab by Underoath


This is what i can figure out for now, please if you know anymore new underOATH tabs 
dont be shy and share it with us.
Tab by: The Cloak Avenger


play this first part twice

e---------------------------------------------------------------------------|
B-------------13------10----------------13-------10-------------------------|
G---------------10-------10----------9-----10~------10-------9---10---------|
D--0-12-0-10~------12-------12----12-------------------12------------12-----|
A---------------------------------------------------------------------------|
D---------------------------------------------------------------------------|


this is played over the second time of the intro riff twice listen 4 it

e-----------------------------------------------------------------|
B-----10~------------13~------------------------------------------|
G-----------12~-------------10~-----------------------------------|
D-----------------------------------------------------------------|
A-----------------------------------------------------------------|
D-----------------------------------------------------------------|

end intro on
e------------------------------------------------------------------|
B------------------------------------------------------------------|
G------------------------------10~---------------------------------|
D------------------------------12~---------------------------------|
A------------------------------------------------------------------|

e-----------------------------------------------------------------------------|
B--6666666666666~-------------------------------------------------------------|
G--9999999999999~-------------------------------------------------------------|
D-----------------------------------------------------------------------------|
A-----------------------------------------------------------------------------|
D-----------------------------------------------------------------------------|

Chorus
e--------------------------------------------|
B--------------------------------------------|
G--------------------------------------------|
D-0000000-33333-333333333333-----------------|
A-0000000-33333-111111111111-----------------|       x4
D-0000000-33333------------------------------|    

Added On December 12th, 2013

SHARE

Comments

blog comments powered by Disqus