Unearth Tabs

Giles

2 versions

TAB

            Giles Tab by Unearth


Unearth
Giles
III: In the Eyes of Fire
7 string BEADGBe
LISTEN TO THE SONG

This is my first Tab ever.
This is all I have for now I will update later.

KEY: (.) palm mute

0:57 and 1:27 in to the song.
-----------------------------------------|
-----------------------------------------|
-----------------------------------------|
-----------------------------------------|
-----------------------------------------|
---2-2-2-2-----2---2-2-2-2-2-----2-2-2---|
---0-0-0-0-----0---0-0-0-0-0-----0-0-0---|
   . . . .     .   . . . . .     . . .

-----------------------------------------|
-----------------------------------------|
-----------------------------------------|
-----------------------------------------|
-----------------------------------------|
---2---2-2-2-2-2-2-2-----2---2-2-2-2-2---|
---0---0-0-0-0-0-0-0-----0---0-0-0-0-0---|
   .   . . . . . . .     .   . . . . .

Sweep Picking
--------15-19-----------------14-17------------------12-15-12----------11----|
----17---------17---------15---------15---------13--------------13-----------|
-16----------------16-14-----------------14-12----------------------12-------|
-----------------------------------------------------------------------------|
-----------------------------------------------------------------------------|
-----------------------------------------------------------------------------|
-----------------------------------------------------------------------------|

Repeat it all 2X    

Added On December 12th, 2013

SHARE

Comments

blog comments powered by Disqus

VERSIONS

ADVERTISEMENT