Usmc Tabs

Hail To The Chief

1 versions

TAB

            this is the main portion of the song...i cant figure out that fancy ending that the band 
i figured you guys would be happy with this

Standard Tuning

e|----------------------------------------------------|
B|----------6-7--6------------------------------------|
G|----7--9---------9-7--9-7---------------------------|
D|---------------------------9--7/5-5-----------------|
A|----------------------------------------------------|
E|----------------------------------------------------|

e|----------------------------------------------------|
B|----------6-7--6---9--7-9--11-9-7-6-----------------|
G|----7--9---------9------------------9---------------|
D|----------------------------------------------------|
A|----------------------------------------------------|
E|----------------------------------------------------|    

Added On December 16th, 2013

SHARE

Comments

blog comments powered by Disqus

ADVERTISEMENT