Vines Tabs

Highly Evolved

2 versions

TAB

            Highly Evolved Tab by Vines


ok i tabbed get free and so now I'm tabbing their old single. The Vines are cool and
their album rules.
Order's at the end.

Normal Tuning
PM - Palm Mute
h  - Hammer-On
p  - Pull-Off
x  - Pick Muted String
s  - Slide

Intro/Verse - Clean
e|-------------------------------------------------------------------|
B|-------------------------------------------------------------------|
G|-------------------------------------------------------------------|
D|---------555-------------------------------------------------------|
A|-2222222-333-555555------------------------------------------------|
E|-0000000-----333333------------------------------------------------|
 PM..................

Chorus - When you mute the strings it should make the harmonic sound that is on the
record, make sure there is enough distortion.
e|-------------------------------------------------------------------|
B|-------------------------------------------------------------------|
G|-------------------------------------------------------------------|
D|-5-x-5-x-55-s-77-8-7-----------------------------------------------|
A|-5-x-5-x-55-s-77-8-7-----------------------------------------------|
E|-3-x-3-x-33-s-55-6-5-----------------------------------------------|

Solo/Interlude
e|-------------------------------------------------------------------|
B|-------------------------------------------------------------------|
G|---------4---------4-----4-----------------------------------------|
D|-----5h7---5-----5-----5---5---------------------------------------|
A|-5h7---------7-5---------------------------------------------------|
E|---------------------3---------------------------------------------|

Order:
Inro/Verse x4
Chorus x4
Intro/Verse x4
Chorus x4
Solo/Interlude x4
Chorus x4
Verse x1

there ya go aint that easy, just 3 parts to learn.
hope ya like it the vines are cool bye bye
email: getcha_grooveon@hotmail.com    

Added On December 16th, 2013

SHARE

Comments

blog comments powered by Disqus

VERSIONS

ADVERTISEMENT