Virginia Coalition Tabs

Green And Grey

1 versions

TAB

            Tabbed by Fedxpope      

 
Verse:
    Bm    A          F#m
e|---2----------------0----2-----------------------------|
b|---3----2-----------0----2h3---------------------------|
G|---4----2-----------0----2-----------------------------|
E|---4----2-----------4----2h4---------------------------|
A|---2----------------4----2-----------------------------|
E|--------------------2----2-----------------------------|
     Fade as if to a whisper...

Chorus:
     D    A   Bm    G    D    A   Bm    A    G
e|---2---------2----3----2---------2---------3------------|
b|---3----2----3----0----3----2----3----2----0------------|
G|---2----2----4----0----2----2----4----2----0------------|
E|---0----2----4----0----0----2----4----2----0------------|
A|-------------2----2--------------2---------2------------|
E|------------------3------------------------3------------|
 ...rains came turnin' us...

Main Riff:
e|----------------------------------------------------------------------|
b|----------------------------------------------10----------------------|
G|-/11--11--10\-/11--10--9--10/11--------7-9/11----9/11--9\----6h7-6----|
E|----------------------------------7h9------------------------------9\-|
A|----------------------------------------------------------------------|
E|----------------------------------------------------------------------|    

Added On December 16th, 2013

SHARE

Comments

blog comments powered by Disqus

ADVERTISEMENT