Washya Tabs

Break Me

1 versions

TAB

            -------------------------------------------------------------------------------
                             Break Me - Washya
-------------------------------------------------------------------------------
Tuning: Drop D
Intro
e|-----------------------------------------------------------|
b|-----------------------------------------------------------|
g|-----------------------------------------------------------|
D|-----------------------------------------------------------|
A|----------------8/7-7\8-5/7----------------3p2p0-----------|
D|-3p2p0-00000000-8/7-7\8-5/7-00000000-3p2p0-------000-00----|
pm       ........             ........             ... .. 

Verses
e|-----------------------------------|
b|-----------------------------------|
g|---------------6h7-----------------|
D|---7h8----5h6------9--7------------|
A|-5------3---------------5-3--------|
D|----------------------------5-3-0--|

Chorus
e|------------------------------------------------------------|
b|------------------------------------------------------------|
g|------------------------------------------------------------|
D|-------------------0------------------------0-------0-------|
A|-000-3-0-3p2---3p2---3p2p0-3333-555-0-3p2-----3p2p0---------|
D|-000-3-0-----0-------------3333-555-0-----0-----------0-3-5-|    

Added On December 16th, 2013

SHARE

Comments

blog comments powered by Disqus

ADVERTISEMENT