Washya Tabs

Flying High

1 versions

TAB

            -----------------------------------------------------------------------------
                                  Flying High - Washya
-----------------------------------------------------------------------------
Tuning: Standard (EBGDAE)
Intro
E|-----------------------------|
B|-----------------------------|
G|-----------------------------|
D|-7-7777--------5-5555--------|
A|-5-5555-5-5555-3-3333-2-2222-|
E|--------3-3333--------0-0000-|x2

Verses
E|-----------------------------------|
B|-----------------------------------|
G|-----------------------------------|
D|-9-9999-9\5-5555-5/7-7777-7\3-3333-|
A|-7-7777-7\3-3333-3/5-5555-5\1-1111-|
E|-----------------------------------|
PM * **** * * **** * * **** * * **** 

Chorus
E|-------------------------------------------------------|
B|-------------------------------------------------------|
G|-7-7777-7-5-5555-5-------------------------------------|
D|-7-7777-7-5-5555-5-5-5555-5-8-8888-8-3-3333-3-2-2222-2-|
A|-5-5555-5-3-3333-3-5-5555-5-8-8888-8-3-3333-3-2-2222-2-|
E|-------------------3-3333-3-6-6666-6-1-1111-1-0-0000-0-|    

Added On December 16th, 2013

SHARE

Comments

blog comments powered by Disqus

ADVERTISEMENT