Washya Tabs

Love This Enemy

1 versions

TAB

            ------------------------------------------------------------------------------
                  Love This Enemy - Washya 
------------------------------------------------------------------------------
Tuning: Standard (EBGDAE)
Intro
E|-----------------------------------------------------|
B|---------------3-------------------------------------|
G|-----3---------------0-------------------------------|
D|---4---4-----0-----4---3-----------2b-4---3/4--------|
A|-2---------4-----2-------4-------2------2-----4-4/5~-|
E|---------2-----------------2-2/4----------------2/3~-|

Main Riff
E|------------------------------------|
B|------------------------------------|
G|------------------------------------|
D|------------------------------------|
A|-----3/6-----4/7-----3/6-555-22-333-|
E|-1/4-----2/5-----1/4-----333-00-111-|

Verses
E|-----------------------------------------------------------------------|
B|-----------------------------------------------------------------------|
G|-----------------------------------------------------------------------|
D|-----------------------------------------------------------------------|
A|-2-------------------------2---------------------------22-5-22-3-------|
E|-0-00-000000-00-00-00-0000-0-00-000000-00-00-00-000000-00-3-00-1-1h3p1-|
PM   ** ****** ** ** ** ****   ** ****** ** ** ** ******           ***** 

Chorus
E|------------------------------------------------------16----16----17~\\-|
B|----------------------/15~\-------------------/15~-15----15----15-------|
G|-----/12~\--------------------------------------------------------------|
D|------------------------------------------------------------------------|
A|-444-------2-3-4--222------------5-6-7--3-------------------------------|
E|-222-------0-1-2--000-------xx\\-3-4-5--1-//xx--------------------------|
PM ***              ***                   *    

Added On December 16th, 2013

SHARE

Comments

blog comments powered by Disqus

ADVERTISEMENT