Washya Tabs

On The Fly

1 versions

TAB

            -----------------------------------------------------------------------------
                         On The Fly - Washya
-----------------------------------------------------------------------------
Tuning: Drop D (DADGBE)
Intro
E|-------------------------------------------------------|
B|-------------------------------------------------------|
G|-------------------------------------------------------|
D|---------------3-------------------------3-------555/7-|
A|---0-5-3-0-3-5---------3-5---0-5-3-0-3-5---------333/5-|
D|-0---------------0-3-5---5-0---------------0-3-5-------|
PM *               * * *     *               * * *  

Verses
E|-----------------------------------------------------------------|
B|-----------------------------------------------------------------|
G|-----------------------------------------------------------------|
D|-----------------------5p3p0---------------------------3p2p0-----|
A|-----------------5p3p0-------1/3-----------------3p2p0-------3/5-|
D|-0-0-0-0-0-0-0-0-------------1/3-0-0-0-0-0-0-0-0-------------3/5-|
PM * * * * * * * *                 * * * * * * * * 

Chorus
E|-----------------------------------------------------------|
B|-----------------------------------------------------------|
G|-----------------------------------------------------------|
D|-------------44444/55-7-------------------333-333----------|
A|-11111/22222-22222/33-5-55555/66666-11111-111-111-11h3p1h4-|
D|-11111/22222------------55555/66666-11111---------11h3p1h4-|    

Added On December 16th, 2013

SHARE

Comments

blog comments powered by Disqus

ADVERTISEMENT