Washya Tabs

Stripped Down

1 versions

TAB

            ------------------------------------------------------------------------------
        Stripped Down - Washya
------------------------------------------------------------------------------
Tuning: Standard (EBGDAE)
Intro/Chorus
E|-------------------------------------------------|
B|-------------------------------------------------|
G|-------------------------------------------------|
D|-----------5555-8888---------------5555-8888-----|
A|-7777-5555-3333-6666-2-3-7777-5555-3333-6666-6/7-|
E|-5555-3333-----------0-1-5555-3333-----------4/5-|

Verses
E|-------------------------|
B|-------------------------|
G|-22----------------------|
D|-22-------8-888----------|
A|-00-77-44-6-666-22-3-4-5-|
E|----55-22-------00-1-2-3-|    

Added On December 16th, 2013

SHARE

Comments

blog comments powered by Disqus

ADVERTISEMENT