We Are Scientists Tabs

Whats The Word

1 versions

TAB

            Whats The Word Tab by We Are Scientists


Standard Tuning
Please rate this is my first tab
Intro Riff:

e|-------------------------------------------------------------------------|
B|-------------------------------------------------------------------------|
G|-------------------------------------------------------------------------|
D|--------------------------------------------11-11-11-11-11-11-11-11------|
A|-9-9-9-9-9-9-9-9--12-12-12-12-12-12-12-12--------------------------------|
E|-------------------------------------------------------------------------|

e|---------------------------|
B|---------------------------|
G}---------------------------|
D|-14-14-14-14-14-14-14-14---| x 2
A|---------------------------|
E|---------------------------|


This riff is repeated in the verse but is changed slightly:

e|---------------------------------------------------------------------------|
B|---------------------------------------------------------------------------|
G|---------------------------------------------------------------------------|
D|---------------------------------------------------------------------------|
A|9-9-9-9-9-9-9-9-12-12-12-12-12-12-12-12-9-9-9-9-9-9-9-9-12-12-12-12-12-12--|
E|---------------------------------------------------------------------------|

e|----------------------------------------------------------|
B|----------------------------------------------------------|
G}----------------------------------------------------------|
D|-------11-11-11-11-11-11-11-11-14-14-14-14-14-14-14-14----|
A|-12-12----------------------------------------------------|
E|----------------------------------------------------------|

Chorus:

e|------------------------------------------------------------------------|
B|-12-----------------------------------------14-----14-14b-14-12-10------|
G|----11-----------------------------------------11------------------11---|
D|-------12-14----x10 i think, then---------------------------------------|
A|------------------------------------------------------------------------|
E|------------------------------------------------------------------------|

then straight back to verse


The third verse riff is like this:

e|------------------------------------------------------------------------|
B|-15-15-15-15-15-15-15--14-14-14-14-14-14-14-14--10-10-10-10-10-10-10-10-|
G|------------------------------------------------------------------------|
D|------------------------------------------------------------------------|
A|------------------------------------------------------------------------|
E|------------------------------------------------------------------------|

e|--------------------------------------------------------------------------|
B|--------------------------14-14-14-14-14-14-14-14-17-17-17-17-17-17-17-17-|
G|-11-11-11-11-11-11-11-11---------------------------------gradually bend---|
D|--------------------------------------------------------------------------|
A|--------------------------------------------------------------------------|
E|--------------------------------------------------------------------------|

repeated a few times then back to the chorus

I havent tabbed the solo because it is played through several effects
If there are any mistakes/suggestions please email me or pm me    

Added On December 16th, 2013

SHARE

Comments

blog comments powered by Disqus

ADVERTISEMENT