Weird Al Yankovic Tabs

Trapped At The Drive Through

1 versions

TAB

            The bass part goes like this (whole song except Radio part):

G|--------------------------------|
D|--------------------------------|
A|-3-------------OR---------------|
E|------4--------------8----4-----|

The "8,4" gives it that deeper sound, which is totally like this song, but choose what 
like. =) Also, one measure rests in between each note. (Each note is a whole note)

This is the guitar "Radio" part (Black Dog/Led Zeppelin):

e|-------|------------------|-------------------|-------------------|
B|-------|----------------5-|-------------------|-------------------|
G|-------|------5-------7---|-5h7p5-----5-------|---------------2---|
D|---5-6-|-7--------7-------|-------7-7-----7---|-5-7-7---------2---|
A|-7-----|---7--------------|-------------------|-------5-7---5-0---|
E|-------|------------------|-------------------|-----------8-------|

e|-----------|-----------------|------------------|-----------------|
B|-----------|-----------------|------------------|-----------------|
G|-2---------|-----------------|------------------|-----------------|
D|-2---------|-----5-----------|-------5----------|---------5-------|
A|-0-----5-6-|-7-------7-----5-|-6-7--------7-----|-5-6-7-------7---|
E|-----7-----|---7---------7---|-----7----------7-|-------7---------|

e|------------------|-----------------|-------------------|
B|------------------|---------------5-|-------------------|
G|------------------|-----5-------7---|-5h7p5-----5-------|
D|--------------5-6-|-7-------7-------|-------7-7-----7---|
A|---5-6-7--5-7-----|---7-------------|-------------------|
E|-7----------------|-----------------|-------------------|

e|-------------------|
b|-------------------|
G|---------------2---|
D|-5-7-7---------2---|  Click! Turned it off...
A|-------5-7---5-0---|
E|-----------8-------|

At the "Click!", the bass comes in again and repeats until the end of the song.  Have 
with it!  =)

Tabbed by:  Jake Norr    

Added On December 16th, 2013

SHARE

Comments

blog comments powered by Disqus

ADVERTISEMENT