Why Tabs

The Hollows

1 versions

TAB

            -----------------------------------------------------------------------------
			    THE HOLLOWS - Why? 
-----------------------------------------------------------------------------

Played muted:

e|--------------------------------------------------------------------------|
B|-----------7---5--------------5--7--------------7--5----------------------|
G|--3--5--7------------3--5--7-----------3--5--7----------------------------|
D|--------------------------------------------------------------------------|
A|--------------------------------------------------------------------------|
E|--------------------------------------------------------------------------|

e|--------------------------------------------------------------------------|
B|-----------7--5--------------5--7------------5--3--2----------------------|
G|--3--5--7-----------3--5--7------------3--5-------------------------------|
D|--------------------------------------------------------------------------|
A|--------------------------------------------------------------------------|
E|--------------------------------------------------------------------------|    

Added On December 16th, 2013

SHARE

Comments

blog comments powered by Disqus

ADVERTISEMENT